Oops, an error
Loading. Please wait.

Happy In Love Tab

version 1
version 1

Intro

Whole song

1,957 views 1 this week
1 commentread comment
1 2 3 4 5
2 more votes to show rating
add to favorites
launch autoscroll
font size
0
reset
how to read this tab
guitar tuner
Autoscroll
slow
fast
+/-
esc
set tempo
stop
Help us to improve Ultimate-Guitar.com Take our survey!
×
Author
                             Happy In Love
                       by: Dear And The Headlights


This song hasn't been tabbed. So I tried.
e|--------2------------------------------------------------------------------|
B|----0-------0---2---2---0---0---0------------------------------------------|
G|------1-------1-------1-------1--------------------------------------------|
D|--2~-----------------------------------------------------------------------|
A|---------------------------------------------------------------------------|
E|---------------------------------------------------------------------------|
This just repeats through the intro and first verse. The secondary guitar and 
the guitar through the rest of the song is different.
:]]enjoyit. peace
Suggest correction
Give kudos to tab author, rate the tab!
1 2 3 4 5
comments
print report bad tab
1 comment total.
0 reply
zorro52lance 31 Apr 21, 2011 03:52 PM

It's good, but he doesn't play the 3rd fret on the e string.
it's like this. Thanks for doing most of it though :)

e|--------2--------------------------------------------------------|
B|----0-------0---2---2---0---0----0-------------------------------|
G|------1------1-------1--------1---------------------------------|
D|--2~-------------------------------------------------------------|
A|-----------------------------------------------------------------|
E|-----------------------------------------------------------------|

guest
You may want to rate the tab now too:
select rating
Wanna post a correction for this tab? Suggest correction