Oops, an error
Loading. Please wait.

I Know Tab

version 2
version 2

Whole song

2,468 views 3 this week
2 commentsread comments
1 2 3 4 5
please rate
add to favorites
launch autoscroll
font size
0
reset
how to read this tab
guitar tuner
Autoscroll
slow
fast
+/-
esc
set tempo
stop
Help us to improve Ultimate-Guitar.com Take our survey!
×
Author
-------------------------------------------------------------------------------
                               I Know – Dear and the Headlights
-------------------------------------------------------------------------------
Tabbed by: Ryan O’Heaney (GeetarAndBase)
Email: ryan.oheaney@yahoo.com

This is the rhythm guitar for the end of Dear and the Headlights’ song I Know.
It starts at 2:11 and goes on for the rest of the song. It’s really fun and simple to play.
I’d like to give to user credit that
tabbed the other part of the song. That really gave me a head start and made my life a 
lot easier.
E-mail me with any questions/comments.
Rate and comment.
Enjoy!

The best way to play this song is by plucking the two strings with your index
on the Gb and your thumb on the Eb. But you could do whatever is comfortable for you.

Intro
eb|---------------------------------------------------------------------------|
Bb|---------------------------------------------------------------------------|
Gb|---3333333333333333-8888888888888888-33333333-555-777-99-------------------|
Db|---------------------------------------------------------------------------|
Ab|---------------------------------------------------------------------------|
Eb|---2222222222222222-7777777777777777-22222222-444-666-88-------------------|

eb|---------------------------------------------------------------------------|
Bb|---------------------------------------------------------------------------|
Gb|---33333333333-8888--------------------------------------------------------|
Db|---------------------------------------------------------------------------|
Ab|---------------------------------------------------------------------------|
Eb|---22222222222-7777--------------------------------------------------------|

Verse x2
eb|---------------------------------------------------------------------------|
Bb|---------------------------------------------------------------------------|
Gb|---3333333333333333-8888888888888888---------------------------------------|
Db|---------------------------------------------------------------------------| x2
Ab|---------------------------------------------------------------------------|
Eb|---2222222222222222-7777777777777777---------------------------------------|

After the second time…
eb|---------------------------------------------------------------------------|
Bb|---------------------------------------------------------------------------|
Gb|---3333333333333333-555-777-99-33333333333-8888----------------------------|
Db|---------------------------------------------------------------------------|
Ab|---------------------------------------------------------------------------|
Eb|---2222222222222222-444-666-88-22222222222-7777----------------------------|

All of the verse is played twice and then there is a small breakdown, which uses the two 
[2xx3xx] and [7xx8xx].
Switch when you hear a key change.
After the small breakdown, the singer sings the last two lines of the second verse which go

eb|---------------------------------------------------------------------------|
Bb|---------------------------------------------------------------------------|
Gb|---33333333-88888888-555-777-99--------------------------------------------|
Db|---------------------------------------------------------------------------|
Ab|---------------------------------------------------------------------------|
Eb|---22222222-77777777-444-666-88--------------------------------------------|

Then you go back to the breakdown, then the verse again


Then there is a little ending that goes like this

eb|---------------------------------------------------------------------------|
Bb|---------------------------------------------------------------------------|
Gb|---33333333-555-777-99-3---------------------------------------------------|
Db|---------------------------------------------------------------------------|
Ab|---------------------------------------------------------------------------|
Eb|---22222222-444-666-88-2---------------------------------------------------|

Order:
Intro x1
Verse x2
Breakdown
Last two lines of verse x1
Breakdown
Verse x2
Breakdown
Little ending x1

| /  slide up
| \  slide down
| h  hammer-on
| p  pull-off
| ~  vibrato
| +  harmonic
| x  Mute note
===============================================================================
Suggest correction
Give kudos to tab author, rate the tab!
1 2 3 4 5
comments
print report bad tab
2 comments total.
+2 reply
gr33nboard 266 wrote on August 8 2009, 11:14 pm

hey man. there just a few things with this that probably got lost when you were typing this. if its tuned half step down then every note is one fret higher up from what you have so its like this:

----------------------------------------------------------|
----------------------------------------------------------|
---4---9---4---9---5---7---9---11---4---11----------------|
----------------------------------------------------------|
----------------------------------------------------------|
---3---8---3---8---5---7---8---10---3---10----------------|

+1 reply
gwizerios 15 wrote on September 7 2009, 03:17 pm

yeah. i think i agree with gr33n, but for standard tuning, this is what i know works. or at least it sounds right, so bear with me.
---------------------------------------------------------------|
---------------------------------------------------------------|
---3----8----4----6----8----10---------------------------------|
---(x16)(x16)(x8)-(x3)-(x3)-(x2)-------------------------------|
---------------------------------------------------------------|
---2----7----4----6----7----9----------------------------------|

guest
You may want to rate the tab now too:
select rating
Wanna post a correction for this tab? Suggest correction