Oops, an error
Loading. Please wait.

Mother Make Me Golden Tab

version 1
version 1

Intro

Whole song

857 views 1 this week
2 commentsread comments
1 2 3 4 5
please rate
add to favorites
launch autoscroll
font size
0
reset
how to read this tab
guitar tuner
Tab Pro tools
  • play this tab
  • loop segment
  • change instrument
  • show fretboard
  • metronome
×
Best way to learn
"Mother Make Me Golden"
Autoscroll
slow
fast
+/-
esc
set tempo
stop
Contributor
Difficulty
intermediate
I'm a beginner at all this tablature stuff so be easy on me. i haven't been playing
for too long so don't be too harsh. i used this site to tune my guitar to this tuning. 
http://www.get-tuned.com/guitar_tuner.php

i hope someone tabs the rest of the song and/or fixes my mistakes

Dear and the Headlights - mother make me golden
Tunning: EADF#Be


Intro: Reapeat this 8 times
e |-------------------------------------------------------------|
B |-----2-2-------2-2-------------------------------------------|
F#|------0---------0---------4-0-------4-0----------------------|
D |-------------------------------------------------------------|
A |-1----------1----------2---------2---------------------------|
E |-------------------------------------------------------------|

e |-----------------------------------------------------------------|
B |-----2-----------------------6--------7-7-----7-7-----7-7--------|
F#|------0----------4-0----------0--------0-------0-------0---------|
D |-----------------------------------------------------------------|
A |-1-----------2-----------4---------6--------6-------6------------|
E |-----------------------------------------------------------------|

e |-----------------------------------|
B |--777777776--6-6----6-6-----6-6----|
F#|--000000000---0------0-------0-----|
D |--xxxxxxxxx------------------------|
A |--666666664-------4-------4--------|
E |-----------------------------------|


**someone should finish off the song or fix my mistakes, w/e. i wanna learn all of it
i cant figure it out.**
comments
We did not receive enough feedback on this tab! Please rate:
print report bad tab
1 2 3 4 5
2 comments total.
0 reply
TDKshorty wrote on July 29 2009, 04:31 pm

ehh... I don't think it's right

the songs tuned a half step down

i'll post a tab up :)

0 reply
novair wrote on July 29 2009, 05:03 pm

thank youuuu

I want to post or [tab]
guest
You may want to rate the tab now too:
select rating
Please do not post tabs as comments. Select "correction" instead!