Oops, an error
Loading. Please wait.

Mother Make Me Golden Tab

version 1
version 1

Whole song

4,032 views 15 this week
3 commentsread comments
1 2 3 4 5
excellent!
x 4
add to favorites
launch autoscroll
font size
0
reset
how to read this tab
guitar tuner
Autoscroll
slow
fast
+/-
esc
set tempo
stop
Help us to improve Ultimate-Guitar.com Take our survey!
×
Author
Difficulty
intermediate
Okay this is how I play this song.

Tune down half step.
Eb------------------------------------|
Bb-----3---3----3---3----0------0-----|
Gb-------0--------0--------0------0---|
Db------------------------------------|
Ab---2--------2--------3------3-------|
Eb------------------------------------| repeat 8x


---------------------------------------------------|
----3-------------7------8---8----8---8----8---8---|
------0----4--------0------0--------0--------0-----|
-------------5-------------------------------------|
--2------3------5------7--------7--------7---------|
---------------------------------------------------|


--10---------------------5-------10---------3----------------|
--12---------------------7-------12---------5----------------|
--12-(x7 really fast-)---7-------12-(x7)----5----------------|
--12---------------------7-------12---------5----------------|
--10---------------------5-------10---------3----------------|
-------------------------------------------------------------|


"and surely everything has blackened..."

-------------------------------------------------------------------------|
-----7---7----------5---5---------4---4-----------4/6-----3---3----------|
-------0--------------0-------------0-------------0/0-------0------------|
-----------(x2)-----------(x4)----------(x3)------x-------------(x2)-----|
---5--------------3-------------3-------------3---3/5---2----------------|
-------------------------------------------------------------------------|


-----------------------------0---------|
-----2---2--------3---3------2---------|
-------0------------0--------2---------|
----------(x2)---------(x2)--2---------|
---0-------------2-----------0---------|
---------------------------------------|

=================================================================
Here every instrument plays together and the guitar starts repeating the intro again. 
I play this:

-------------------|
---3---5---7---8---|
---0---0---0---0---|
---x---x---x---x---|
---2---3---5---7---|
-------------------|    repeat

"like sunset on John laughing"
---10-----5-----10-----3---------|
---12-----7-----12-----5---------|
---12-----7-----12-----5---------|
---12-----7-----12-----5---------|
---10-----5-----10-----3---------|
---------------------------------|

"oh how the light would come and cover him"
-----------------7-----7-----7-----7-----8-----7---|
---3---5---7-------8-----8-----8-----8-----8-----8-|
---0---0---0---------------------------------------|
---x---x---x---------------------------------------|
---2---3---5---7-----7-----7-----7-----7-----7-----|
---------------------------------------------------|

--10---------------------5-------10---------3------|
--12---------------------7-------12---------5------|
--12-(x7)(really fast)---7-------12--x7-----5------|
--12---------------------7-------12---------5------|
--10---------------------5-------10---------3------|
---------------------------------------------------|

"it all seems to end"
---------|
---------|
---11----|
---12----|
---9-----|
---------|

"with the stitches, no tagbacks..."
-------------------|
---3---5---7---8---|
---0---0---0---0---|
---x---x---x---x---|
---2---3---5---7---|
-------------------|

"and I loved it"
---10-----5-----10-----3---------|
---12-----7-----12-----5---------|
---12-----7-----12-----5---------|
---12-----7-----12-----5---------|
---10-----5-----10-----3---------|
---------------------------------|

                     OUTRO (play this softer)
---10-----5-----10------------------x---x------------------|
---12-----7-----12-----5--------3---1---0-----8---8--------|
---12-----7-----12-----0--------0---0---0-------0----------|
---12-----7-----12-----x--------x---2---0-----------(x4)---|
---10-----5-----10-----3--------2---3---2---7--------------|
-----------------------------------------------------------|

---------------------------------------------------|
----7---7---------5---5---------4---4---------4/6--|
------0-------------0-------------0----------------|
----------(x2)----------(x4)----------(x3)---------|
--5-------------3-------------3-------------3------|
---------------------------------------------------|

------------------------------------------------0----|
-----3---3----------2---2---------3---3---------2----|
-------0--------------0-------------0-----------2----|
-----------(x2)-----------(x2)-----------(x2)---2----|
---2--------------0-------------2---------------0----|
-----------------------------------------------------|
Suggest correction
What's this?
You can suggest a correction to this tab. Community and Mods will review your correction and vote to approve or reject it.
comments
print report bad tab
3 comments total.
+1 reply
Expressionism 78 wrote on April 9 2012, 03:21 pm

Eb------------------------------------|
Bb-----3---3----3---3----0------0-----|
Gb-------0--------0--------0------0---|
Db------------------------------------|
Ab---2--------2--------3------3-------|
Eb------------------------------------|

Same, but easier.

0 reply
baileafholmez 23 wrote on March 9 2014, 01:04 am

I agree, so much easier that way

0 reply
gr33nboard 580 wrote on July 4 2014, 11:55 am

Thanks, you're right that's easier. Made the update.

guest
You may want to rate the tab now too:
select rating
Please do not post tabs as comments. Select "correction" instead!