Oops, an error
Loading. Please wait.

If I Could Tell Her tab

3,394 views 135 this week
2 commentsread comments
1 2 3 4 5
x 4
add to favorites
×
Save as Personal and add changes to this tab that will be seen only by you. Learn more ›
×
You can save this tab as Personal to edit and correct it or add notes. All changes will be seen only by you. Learn more »
launch autoscroll
font size
0
reset
how to read this tab
guitar tuner
edit
Autoscroll
slow
fast
+/-
esc
set tempo
stop
[Intro and Verse) 
e|----------|----------|-------------|------------------------------------------|
B|----------|----------|-------------|------------------------------------------|
G|----------|----------|-------------|------------------------------------------|
D|---2----2-|----2----2|-----2-----2-|----2----1h2------------------------------|
A|----------|-0-----0--|-------------|-2-----2----------------------------------|
E|-0----0---|----------|--2----2-----|------------------------------------------|

e|----------|----------|-------------|------------------------------------------|
B|----------|----------|-------------|------------------------------------------|
G|----------|----------|-------------|------------------------------------------|
D|---2----2-|----2----2|-----2-----2-|----2----1h2------------------------------|
A|----------|-0-----0--|-------------|-2-----2----------------------------------|
E|-0----0---|----------|--2----2-----|------------------------------------------|

e|----------|----------|-------------|------------------------------------------|
B|----------|----------|-------------|------------------------------------------|
G|----------|----------|-------------|------------------------------------------|
D|---2----2-|----2----2|-----2-----2-|----2----1h2------------------------------|
A|----------|-0-----0--|-------------|-2-----2----------------------------------|
E|-0----0---|----------|--2----2-----|------------------------------------------|


e|---------|------------|------------|------------------------------------------|
B|---------|------------|------------|------------------------------------------|
G|---------|------------|------------|------------------------------------------|
D|---2----2|-----2----2-|----2-----2-|----2----4h2------------------------------|
A|---------|--0-----0---|------------|-2-----2----------------------------------|
E|-0----0--|------------|-2----2-----|------------------------------------------|

e|---------|------------|------------|------------------------------------------|
B|---------|------------|------------|------------------------------------------|
G|---------|------------|------------|------------------------------------------|
D|---2----2|-----2----2-|----2-----2-|----2----4h2------------------------------|
A|---------|--0-----0---|------------|-2-----2----------------------------------|
E|-0----0--|------------|-2----2-----|------------------------------------------|

e|---------|------------|------------|------------------------------------------|
B|---------|------------|------------|------------------------------------------|
G|---------|------------|------------|------------------------------------------|
D|---2----2|-----2----2-|----2-----2-|----2----4h2------------------------------|
A|---------|--0-----0---|------------|-2-----2----------------------------------|
E|-0----0--|------------|-2----2-----|------------------------------------------|

e|---------|------------|------------|------------------------------------------|
B|---------|------------|------------|------------------------------------------|
G|---------|------------|------------|------------------------------------------|
D|---2----2|-----2----2-|----2-----2-|----2----4h2------------------------------|
A|---------|--0-----0---|------------|-2-----2----------------------------------|
E|-0----0--|------------|-2----2-----|------------------------------------------|

REPEAT (Alternating)

[Pre-Chorus]
         C#m    F#7    B        B7            
"But he kept it all inside his head.  
         C#m    F#7    B
What he saw he left unsaid"
      C#m        F#7         B         B7        C#m         F#7         B
e|-------4----------2----------2----------2----------4----------2----------2--|
B|-------5----------3----------3----------3----------5----------3----------3--|
G|-------6----------2----------3----------2----------6----------2----------3--|
D|-------6----------4----------3----------3----------6----------4----------3--|
A|---4---4------2---2------2---2------2---2------4---4------2---2------2---2--|
E|----------------------------------------------------------------------------|

"And though he wanted to,
             E
he couldn't talk to you,
                     B
he couldn't find the way,
                     B7
but he would always say"
      E            B             B7
e|------0------------2-------------2-------------|
B|------0------------3-------------3-------------|
G|------1------------3-------------2-------------|
D|------2------------3-------------3-------------|
A|--2---2--------2---3---------2---2-------------|
E|-----------------------------------------------|

[Chorus]
 A    E
if i could tell her
             B       (B7)
tell her everything i see
             A   E
if i could tell her
               B
how she's everything to me,

      A       E       G#7    C#m                       Piano e|-0---0----0-|
but we're a million worlds apart                       riff  B|---4--0--4--|
    A                              B                         G|------------|     
and i don't know how i would even start,                     A|------------|
             E     B    A                                    E|------------|
if i could tell her                                          D|------------|
             E     B    A (let ring)
if i could tell her

(Verse 2)
(spoken dialogue

he thought
you looked really pretty- eh erm,
it looked pretty COOL, when you put           
indigo streaks in your hair

and he wondered
how you learned to dance like all the 
rest of the world isn't there

  (X4)
e|----------|-----------|------------|------------------------------------------|
B|----------|-----------|------------|------------------------------------------|
G|----------|-----------|------------|------------------------------------------|
D|---2----2-|----2----2-|----2-----2-|----2----1h2------------------------------|
A|----------|-0-----0---|------------|-2-----2----------------------------------|
E|-0----0---|-----------|-2----2-----|------------------------------------------|

e|----------|-----------|------------|------------------------------------------|
B|----------|-----------|------------|------------------------------------------|
G|----------|-----------|------------|------------------------------------------|
D|---2----2-|----2----2-|----2----2--|---2----4h2-------------------------------|
A|----------|-0-----0---|------------|-2-----2----------------------------------|
E|-0----0---|-----------|-2----2-----|------------------------------------------|

e|----------|-----------|------------|------------------------------------------|
B|----------|-----------|------------|------------------------------------------|
G|----------|-----------|------------|------------------------------------------|
D|---2----2-|----2----2-|----2-----2-|----2----1h2------------------------------|
A|----------|-0-----0---|------------|-2-----2----------------------------------|
E|-0----0---|-----------|-2----2-----|------------------------------------------|

e|----------|-----------|------------|------------------------------------------|
B|----------|-----------|------------|------------------------------------------|
G|----------|-----------|------------|------------------------------------------|
D|---2----2-|----2----2-|----2----2--|---2----4h2-------------------------------|
A|----------|-0-----0---|------------|-2-----2----------------------------------|
E|-0----0---|-----------|-2----2-----|------------------------------------------|

e|----------|-----------|------------|------------------------------------------|
B|----------|-----------|------------|------------------------------------------|
G|----------|-----------|------------|------------------------------------------|
D|---2----2-|----2----2-|----2-----2-|----2----1h2------------------------------|
A|----------|-0-----0---|------------|-2-----2----------------------------------|
E|-0----0---|-----------|-2----2-----|------------------------------------------|

e|----------|-----------|------------|------------------------------------------|
B|----------|-----------|------------|------------------------------------------|
G|----------|-----------|------------|------------------------------------------|
D|---2----2-|----2----2-|----2----2--|---2----4h2-------------------------------|
A|----------|-0-----0---|------------|-2-----2----------------------------------|
E|-0----0---|-----------|-2----2-----|------------------------------------------|

e|----------|-----------|------------|------------------------------------------|
B|----------|-----------|------------|------------------------------------------|
G|----------|-----------|------------|------------------------------------------|
D|---2----2-|----2----2-|----2-----2-|----2----1h2------------------------------|
A|----------|-0-----0---|------------|-2-----2----------------------------------|
E|-0----0---|-----------|-2----2-----|------------------------------------------|

e|----------|-----------|------------|------------------------------------------|
B|----------|-----------|------------|------------------------------------------|
G|----------|-----------|------------|------------------------------------------|
D|---2----2-|----2----2-|----2----2--|---2----4h2-------------------------------|
A|----------|-0-----0---|------------|-2-----2----------------------------------|
E|-0----0---|-----------|-2----2-----|------------------------------------------|

[Pre-Chorus]
         C#m    F#7    B        B7            
"But he kept it all inside his head.  
         C#m    F#7    B
What he saw he left unsaid"
      C#m        F#7         B         B7        C#m         F#7         B
e|-------4----------2----------2----------2----------4----------2----------2--|
B|-------5----------3----------3----------3----------5----------3----------3--|
G|-------6----------2----------3----------2----------6----------2----------3--|
D|-------6----------4----------3----------3----------6----------4----------3--|
A|---4---4------2---2------2---2------2---2------4---4------2---2------2---2--|
E|----------------------------------------------------------------------------|

 A    E
"if i could tell her
             B       (B7)
tell her everything i see
             A   E
if i could tell her
               B
how she's everything to me,

      A       E       G#7    C#m                      
but we're a million worlds apart                       
    A                              B               
and i don't know how i would even start,                    
             E     B    A                                   
if i could tell her
             E     B    A (let ring)
if i could tell her"

(KEY CHANGE)
            C
if i could tell her
                G                         C
but what do you do, when there's this great divide?
                G           C
(zoey: he just seems so far away...)
                G                            D
and what do you do, when the distance is too wide?

(zoey: it's like i don't know anything)
     G
and how do you say,
   C
i love you
   C
i love you
   C
i love you
   C
i love you

      C       G     D     Em
but we're a million worlds apart
     C              G            D
and i don't know how i would even start
            G    D  Em  C
if i could tell her
       G   D   C
if i could"


************************************
| h   Hammer-on
************************************

            
            
Suggest correction
Creating personal tab
Creating personal tab
You can edit any tab online and save it as your Personal.

You can edit, replace or remove any tab part or add personal notes – all changes will be seen only by you.

Personal tabs can be accessed anytime from any device, even offline.
Learn more »
comments
print report bad tab
2 comments total.
0 reply
tobiashaastrup 10 Aug 25, 2017 06:31 AM

Thanks for tabbing this. Bless your heart <3

0 reply
d0m.j.3de 10 Sep 10, 2017 01:59 PM

think the F#7 when you tabbed it should be lowered one string, so that its starts on 2 on the E. a part from that, great tab!

guest
You may want to rate the tab now too:
select rating
Wanna post a correction for this tab? Suggest correction