Oops, an error
Loading. Please wait.

So Big So Small tab

5,992 views 726 this week
4 commentsread comments
1 2 3 4 5
x 16
add to favorites
×
Save as Personal and add changes to this tab that will be seen only by you. Learn more ›
×
You can save this tab as Personal to edit and correct it or add notes. All changes will be seen only by you. Learn more »
launch autoscroll
font size
0
reset
how to read this tab
guitar tuner
edit
Autoscroll
slow
fast
+/-
esc
set tempo
stop
Author
Difficulty
"So Big / So Small" from the musical Dear Evan Hansen - Benj Pasek and Justin Paul

The only thing I'm unsure about is the bridge because it's hard to hear the guitar in the studio track. 
Make sure to listen to the track for the timing. Enjoy!

Tuning: EADGBe
NO Capo

[Intro]
   G/B          Cadd9       Dadd11              G/B         Cadd9       Dadd11
e|-------------------------------------------|--------------------0----------------------------------|
B|--------3-----------3-------------3--------|--------3--------------3----------3--------------------|
G|-----0-----0-----0-----0-------0-----0-----|-----0-----0-----0-------------0-----0-----------------|
D|----------------------------------------4--|----------------------------------------4--------------|
A|--2-----------3-----------3/5--------------|--2-----------3-----------3/5--------------------------|
E|-------------------------------------------|-------------------------------------------------------|

[Verse 1]
  It was a February Day                       When you're dad came by before going away
    G/B         Cadd9       Dadd11              G/B         Cadd9       Dadd11
e|-------------------------------------------|--------------------0----------------------------------|
B|--------3-----------3-------------3--------|--------3--------------3----------3--------------------|
G|-----0-----0-----0-----0-------0-----0-----|-----0-----0-----0-------------0-----0-----------------|
D|----------------------------------------4--|----------------------------------------4--------------|
A|--2-----------3-----------3/5--------------|--2-----------3-----------3/5--------------------------|
E|-------------------------------------------|-------------------------------------------------------|

  A U-haul truck in the driveway               The day it was suddenly real
    Em7           Em7/D          Csus2          Dadd11                G
e|-------------------------------------------|-------------------------------------------------------|
B|----------3-----------3--------3-----------|--------3---------------------------3------------------|
G|-------0-----0-----0-----0-----0-----------|-----0-----0------------------0------------------------|
D|--1/2-----------0--------------0-----------|--------------4------------0-----0---------------------| 
A|-------------------------------3-----------|--5----------------------------------------------------|
E|-------------------------------------------|------------------------3------------------------------|

  I told you not to come outside              But you saw that truck and you smiled so wide
    G/B        Cadd9        Dadd11                    G/B         Cadd9       Dadd11
e|-------------------------------------------|--------------------------0----------------------------|
B|--------3-----------3-------------3--------|--------------3--------------3----------3--------------|
G|-----0-----0-----0-----0-------0-----0-----|-----------0-----0-----0-------------0-----0-----------|
D|----------------------------------------4--|----------------------------------------------4--------|
A|--2-----------3-----------3/5--------------|--5p3---2-----------3-----------3/5--------------------|
E|-------------------------------------------|-------------------------------------------------------|

  A real life truck in your driveway          We let you sit behind the wheel
   Em7           Em7/D          Csus2         Dadd11                    G
e|------------------------------------------|---------------------------3----------------------------|
B|---------3-----------3-------------------3|--------3------------------3----------------------------|
G|------0-----0-----0-----0-----------0-----|-----0-----0---------------0----------------------------|
D|-1/2-----------0-----------------0-----0--|--------------4------------0----------------------------| 
A|------------------------------3-----------|--5------------------------2----------------------------|
E|------------------------------------------|---------------------------3----------------------------|

[Pre-Chorus]
  Goodbye                   Goodbye           Now it's just me and my little guy
    Em          Dadd11        Gadd9            Csus2       G/B         G/A              Fadd9  
e|---------------------------------------3--|-------------------------------------------3------------|
B|--------8-------------10\3----------0-----|--------3-----------3-----------3----------1------------|
G|-----0-----0-------0-------------2--------|-----0-----0-----0-----0-----0-----0-------0------------|
D|------------------------------0-----------|-------------------------------------------3------------| 
A|--7-----------7/9-------------------------|--3-----------2-----------0----------------0------------|
E|---------------------------3--------------|-------------------------------------------1------------|

[Chorus]
  And the house felt so big                  And I felt so small
    Dm7         Csus2       Gadd9              Dm7         Csus2       Gadd9
e|--------------------------------------3---|--------------------------------------------------------|
B|--------------------3--------------0------|--------------------3-----------------0-----------------|
G|--------5--------0-----0--------2---------|--------5--------0-----0-----------2--------------------|
D|-----3-----3-----------------0------------|-----3-----3--------------------0-----------------------| 
A|--5-----------3---------------------------|--5-----------3--------------0--------------------------|
E|--------------------------3---------------|--------------------------3-----------------------------|

  The house felt so big                      And I felt so small
    Dm7         Csus2        G                 Dm7         Csus2             G
e|-------------------------------------3----|--------------------------------3---|-------------------|
B|--------------------3-----0---------------|--------------------3-----------3---|-------------------|
G|--------5--------0-----0-----0-----0------|--------5--------0-----0--------0---|-------------------|
D|-----3-----3--------------------0---------|-----3-----3-----------------0--0---|-------------------| 
A|--5-----------3---------------------------|--5-----------3-----------------2---|------------0------|
E|--------------------------3----------3----|--------------------------3-----3---|---------3---------|

[Verse 2]
  That night I tucked you into bed             I will never forget how you sat up and said
    G/B         Cadd9       Dadd11              G/B         Cadd9       Dadd11
e|-------------------------------------------|--------------------0----------------------------------|
B|--------3-----------3-------------3--------|--------3--------------3----------3--------------------|
G|-----0-----0-----0-----0-------0-----0-----|-----0-----0-----0-------------0-----0-----------------|
D|----------------------------------------4--|----------------------------------------4--------------|
A|--2-----------3-----------3/5--------------|--2-----------3-----------3/5--------------------------|
E|-------------------------------------------|-------------------------------------------------------|
 
 Is there another truck coming to our         A truck that will take mommy away
               driveway
   Em7    Em7/D  Em7/A                          Dsus4    Dadd11         G
e|-------------------------------------------|--------------------------3----------------------------|
B|-3------3------------3---------------------|--3-----------------------3----------------------------|
G|-0------0------------0---------------------|--0-----------------------0----------------------------|
D|-2------0---------2------------------------|--0--------4---------0----0----------------------------|
A|---------------0---------------------------|--5-----------------------2----------------------------|
E|-------------------------------------------|------------------3-------3----------------------------|

[Chorus]
  And the house felt so big                  And I felt so small
   Dm7         Csus2        Gadd9              Dm7         Csus2       Gadd9
e|--------------------------------------3---|--------------------------------------------------------|
B|--------------------3--------------0------|--------------------3-----------------0-----------------|
G|--------5--------0-----0--------2---------|--------5--------0-----0-----------2--------------------|
D|-----3-----3-----------------0------------|-----3-----3--------------------0-----------------------| 
A|--5-----------3---------------------------|--5-----------3--------------0--------------------------|
E|--------------------------3---------------|--------------------------3-----------------------------|

  The house felt so big  
    Dm7         Csus2        Gadd9                   
e|--------------------------------------3---|
B|--------------------3--------------0------|
G|--------5--------0-----0--------2---------|
D|-----3-----3-----------------0------------|
A|--5-----------3---------------------------|
E|--------------------------3---------------|

[Bridge]
  And I... 
    Dm7                                   
e|-------------------------------------------|
B|-------------------------------------------|
G|--------5-----------5----------------------|
D|-----3-----3-----3-----3-------------------|
A|--5-----------5----------------------------|
E|-------------------------------------------|

  And I knew there would be  moments that I'd miss   And I knew there would be  space I couldn't fill
    Cadd9                    Em          Emadd9 Em     Cadd9                    Em          Emadd9 Em
e|--------------0----------|--------3-----2-----0---|--------------0----------|--------3-----2-----0---|
B|--------3--------3-----3-|------------------------|--------3--------3-----3-|------------------------|
G|-----0-----0--------0----|-----0-----0-----0-----0|-----0-----0--------0----|-----0-----0-----0-----0|
D|-------------------------|------------------------|-------------------------|------------------------|
A|--3----------------------|------------------------|--3----------------------|------------------------|
E|-------------------------|--0---------------------|-------------------------|--0---------------------|

  And I knew I'd come up    million different ways   And i did   And I do    And I will
         short a
    Cadd9                     Cm     G                 G5/D       G5/D         Dadd11
e|--------------0----------|--3------------------3--|--------3--|--------3--|--5--(strum upward)-------|
B|--------3--------3-----3-|--4------------3--------|--------3--|--------3--|--3-----------------------|
G|-----0-----0--------0----|--5---------0-----0-----|-----------|-----------|--0-----------------------|
D|-------------------------|--5---------------------|-----5-----|-----5-----|--4-----------------------|
A|--3----------------------|--3---------------------|--5--------|--5--------|--------------------------|
E|-------------------------|---------3--------------|-----------|-----------|--------------------------|

[Verse 3]
  But like that February day                  I will take your hand, squeeze it tightly and say
    G/B         Cadd9       Dadd11              G/B        Cadd9        Dadd11
e|-------------------------------------------|--------------------0----------------------------------|
B|--------3-----------3-------------3--------|--------3--------------3----------3--------------------|
G|-----0-----0-----0-----0-------0-----0-----|-----0-----0-----0-------------0-----0-----------------|
D|----------------------------------------4--|----------------------------------------4--------------|
A|--2-----------3-----------3/5--------------|--2-----------3-----------3/5--------------------------|
E|-------------------------------------------|-------------------------------------------------------|
 
  There's not another truck in the driveway   You're mom isn't going anywhere
    Em7    Em7/D   Am11                         G/B
e|-----------------------------3-------------|-------------------------------------------------------|
B|--3------3----------------3----------------|--3-----3-----3-----3----------------------------------|
G|--0------0-------------5-------------------|-----0-----0-----0-----0-------------------------------|
D|--2------0----------5----------------------|-------------------------------------------------------|
A|-----------------0-------------------------|--2-----------2----------------------------------------|
E|-------------------------------------------|-------------------------------------------------------|

  You're mom is staying right here            You're mom isn't going anywhere
    Csus2                                       G/B
e|-------------------------------------------|-------------------------------------------------------|
B|--3-----3-----3-----3----------------------|--3-----3-----3-----3----------------------------------|
G|-----0-----0-----0-----0-------------------|-----0-----0-----0-----0-------------------------------|
D|-------------------------------------------|-------------------------------------------------------|
A|--3-----------3----------------------------|--2-----------2----------------------------------------|
E|-------------------------------------------|-------------------------------------------------------|

  You're mom is staying right here            No matter what  I'll be here
   Gmaj7/B                                      Em             G/B
e|--2-----------2----------------------------|--------3------|---------------------------------------|
B|--------0----------------------------------|---------------|-------3-------------------------------|
G|-----0-----0-------------------------------|-----0---------|----0----------------------------------|
D|-------------------------------------------|---------------|---------------------------------------|
A|--2-----------2----------------------------|---------------|-2-------------------------------------|
E|-------------------------------------------|--0------------|---------------------------------------|

[Chorus]
 When it all feels so big                    Till it all feels so small
    Dm7         Csus2        Gadd9              Dm7         Csus2       Gadd9
e|--------------------------------------3---|--------------------------------------------------------|
B|--------------------3--------------0------|--------------------3-----------------0-----------------|
G|--------5--------0-----0--------2---------|--------5--------0-----0-----------2--------------------|
D|-----3-----3-----------------0------------|-----3-----3--------------------0-----------------------| 
A|--5-----------3---------------------------|--5-----------3--------------0--------------------------|
E|--------------------------3---------------|--------------------------3-----------------------------|

  When it all feels so big                   Till it all feels so small
    Dm7         Csus2       G                  Dm7         Csus2       Em                  A
e|-------------------------------------3----|--------------------------------------------------------|
B|--------------------3-----0---------------|--------------------3-------------------------2---------|
G|--------5--------0-----0-----0-----0------|--------5--------0-----0-----------0----------2---------|
D|-----3-----3--------------------0---------|-----3-----3--------------------2-------------2---------| 
A|--5-----------3---------------------------|--5-----------3--------------2--------------------------|
E|--------------------------3----------3----|--------------------------0-----------------------------|

 Till it all feels so  small 
    Dadd11             G/B          Cadd9       Dadd11         G/B         Cadd9       Dadd11    
e|-------------------|---------------------------------------|--------------------0------------------|
B|--------3----------|--------3-----------3-----------3------|--------3--------------3---------3-----|
G|-----0-----0-------|-----0-----0-----0-----0-----0-----0---|-----0-----0-----0------------0--------|
D|--------------4----|--------------------------------------4|--------------------------------------4|
A|--5----------------|--2-----------3-----------3/5----------|--2-----------3-----------3/5----------|
E|-------------------|---------------------------------------|---------------------------------------|

    G
e|--3--------|
B|--3--------|
G|--0--------|
D|--0--------|
A|--2--------|
E|--3--------|


************************************

| p   Pull-off
| /   Slide up
| \   Slide down

************************************

            
            
Suggest correction
Creating personal tab
Creating personal tab
You can edit any tab online and save it as your Personal.

You can edit, replace or remove any tab part or add personal notes – all changes will be seen only by you.

Personal tabs can be accessed anytime from any device, even offline.
Learn more »
comments
print report bad tab
4 comments total. Showing first comments.
+2 reply
catherlando 10 May 13, 2017 01:13 PM

Perfect. I love it. Thank you.

+1 reply
dsb328 10 Jun 12, 2017 04:56 PM

Excellent. Many thanks!

+1 reply
timmyc1000 14 Aug 14, 2017 02:31 PM

Brilliant tab.

guest
You may want to rate the tab now too:
select rating
Wanna post a correction for this tab? Suggest correction