Oops, an error
Loading. Please wait.

A Moment Of Clarity tab

version 2
version 2

Whole song

Interactive

by Death
13,208 views 18 this week
no commentswrite comment
1 2 3 4 5
x 5
add to favorites
×
Save as Personal and add changes to this tab that will be seen only by you. Learn more ›
×
You can save this tab as Personal to edit and correct it or add notes. All changes will be seen only by you. Learn more »
launch autoscroll
font size
0
reset
how to read this tab
guitar tuner
edit
Autoscroll
slow
fast
+/-
esc
set tempo
stop
#----------------------------------PLEASE NOTE---------------------------------#
#This file is the author's own work and represents their interpretation of the #
#song. You may only use this file for private study, scholarship, or research. #
#------------------------------------------------------------------------------#

A MOMENT OF CLARITY
As recorded by Death
(From the 1998 Album THE SOUND OF PERSEVERANCE)

Transcribed by livingzombie, Stefanos Danakos (slaytanic_gr@yahoo.com)
        

Words and Music by Chuck Schuldiner

Gtr I (D G C F A D) - 'Chuck Schuldiner'
Gtr II (D G C F A D) - 'Shannon Hamm'
Gtr III (D G C F A D) - 'Pick Slide I'
Gtr IV (D G C F A D) - 'Pick Slide II'
Gtr V (D G C F A D) - 'Solo Fills'

   Intro
    Q=124
    G#5   G5N.C.
   4/4
    Gtrs I, II
    PM--|                      ~
    E S S E  S S S S  S S  S S E
||-------------------------------|
||o------------------------------|
||-------------------------------|
||-------------------------------|
||o-6-----5-10p6-9p5-11p7-10-7-6-|
||--4-4-4-3----------------------|


 1.                               2.
  G#5   G5N.C.                     G#5   G5N.C.
  PM--|                      ~     PM--|                  ~~
  E S S E  S S S S  S S  S S E     E S S E  S S S S  S S  Q
|-------------------------------||----------------------------|
|------------------------------o||----------------------------|
|-------------------------------||----------------------------|
|-------------------------------||----------------------------|
|-6-----5-10p6-9p5-11p7-10-7-6-o||-6-----5-10p6-9p5-11p7-10---|
|-4-4-4-3-----------------------||-4-4-4-3--------------------|


    G#5   G5N.C.
    Gtr I
    PM--|                      ~
    E S S E  S S S S  S S  S S E
||-------------------------------|
||o------------------------------|
||-------------------------------|
||-------------------------------|
||o-6-----5-10p6-9p5-11p7-10-7-6-|
||--4-4-4-3----------------------|
|
|   Gtr II
|   PM--|                      ~
|   E S S E  S S S S  S S  S S E
||-------------------------------|
||o------------------------------|
||-----------7p3-6p2--8p4--7-4-3-|
||-------------------------------|
||o-6-----5----------------------|
||--4-4-4-3----------------------|


 1.                               2.
  G#5   G5N.C.                     G#5   G5N.C.
  PM--|                      ~     PM--|                  ~~~
  E S S E  S S S S  S S  S S E     E S S E  S S S S  S S  Q
|-------------------------------||------------------------------|
|------------------------------o||------------------------------|
|-------------------------------||------------------------------|
|-------------------------------||------------------------------|
|-6-----5-10p6-9p5-11p7-10-7-6-o||-6-----5-10p6-9p5-11p7-10-----|
|-4-4-4-3-----------------------||-4-4-4-3----------------------|
|
| PM--|                      ~     PM--|                  ~~~
| E S S E  S S S S  S S  S S E     E S S E  S S S S  S S  Q
|-------------------------------||------------------------------|
|------------------------------o||------------------------------|
|----------7p3-6p2--8p4--7-4-3--||----------7p3-6p2--8p4-[7]----|
|-------------------------------||------------------------------|
|-6-----5----------------------o||-6-----5----------------------|
|-4-4-4-3-----------------------||-4-4-4-3----------------------|


    G5        D5
            PM
    H.      E E   +W
||--------------|---------------------|
||o-------------|---------------------|
||------------7-|-(7)-----------------|
||--5---------7-|-(7)-----------------|
||o-5-------5-5-|-(5)-----------------|
||--3-----------|---------------------|
|
|           PM              ~~~~~~~
|   H.      E E   +Q     E  E  +H
||--------------|---------------------|
||o-------------|---------------------|
||------------7-|-(7)--/11-11-(11)----|
||--5---------7-|-(7)-----------------|
||o-5-------5-5-|-(5)---/9--9--(9)----|
||--3-----------|---------------------|


                         1.,2.,3.       4.
  F#5                 C#5
                                                      Gtr III
  PM----------------|                                 TP
  E S S E S S E S S E E   +W          4x +H     +E  E Q
|-----------------------|-------------||-------------------||
|-----------------------|------------o||-------------------||
|---------------------6-|-(6)---------||-(6)----(6)--------||
|---------------------6-|-(6)---------||-(6)----(6)--------||
|-4-4-4-4-4-4-4-4-4-4-4-|-(4)--------o||-(4)----(4)--------||
|-2-2-2-2-2-2-2-2-2-2---|-------------||------------5sx\---||
|
|                                                     Gtr IV
| PM----------------|                                 TP
| E S S E S S E S S E E   +W          4x +H     +E  E Q
|-----------------------|-------------||-------------------||
|-----------------------|------------o||-------------------||
|---------------------6-|-(6)---------||-(6)----(6)--------||
|---------------------6-|-(6)---------||-(6)----(6)--------||
|-4-4-4-4-4-4-4-4-4-4-4-|-(4)--------o||-(4)----(4)--------||
|-2-2-2-2-2-2-2-2-2-2---|-------------||------------5sx\---||


   Verse
    Double time Q=240
    $
    N.C.                              A5    C5
    Gtr I
    PM-------------------------------------------------------|
    Q  Q  Q  Q    Q  Q  Q  Q   4x     Q  Q  Q  Q    Q  Q  Q  Q
||--------------|--------------||-||--------------|---------------||
||o-------------|-------------o||-||o-------------|--------------o||
||-----2--------|-------4------||-||--2--2--5--5--|-4--4--4--4----||
||-----------5--|----4-----4---||-||--2--2--5--5--|-4--4--4--4----||
||o-0-----3-----|-2-----------o||-||o-0--0--3--3--|-2--2--2--2---o||
||--------------|--------------||-||--------------|---------------||
|
|   Gtr II
|   PM-------------------------------------------------------|
|   Q  Q  Q  Q    Q  Q  Q  Q   4x     Q  Q  Q  Q    Q  Q  Q  Q
||--------------|--------------||-||--------------|---------------||
||o-------------|-------------o||-||o-------------|--------------o||
||-----2--------|-------4------||-||-----2--------|-------4-------||
||-----------5--|----4-----4---||-||-----------5--|----4-----4----||
||o-0-----3-----|-2-----------o||-||o-0-----3-----|-2------------o||
||--------------|--------------||-||--------------|---------------||


    BN.C.
    Gtrs I, II
    PM---------------------|
    Q  Q  Q  Q    Q  Q  Q  Q
||--------------|--------------||
||o-------------|-------------o||
||-----2--------|-------4------||
||-----------5--|----4-----4---||
||o-0-----3-----|-2-----------o||
||--------------|--------------||


    Q=132
    A5 Bb5E5 F5    N.C.
                   PM---------------| ~
    Q  Q  Q   Q    S S S S q  S S S S Q
||---------------|-----------------------|
||o--------------|-----------------------|
||---------------|-----------------------|
||--------9--10--|-----------------------|
||o-7--8--7---8--|-8-------7--8-------7--|
||--5--6---------|---6-5-5------6-5-5----|


  A5 Bb5D5 Bb5  N.C.
                PM---------------| ~
  Q  Q  Q  Q    S S S S q  S S S S Q
|-------------|--------------------------||
|-------------|-------------------------o||
|-------------|--------------------------||
|-------7-----|--------------------------||
|-7--8--5--8--|-8-------7--8-------7----o||
|-5--6-----6--|---6-5-5------6-5-5-------||


    Q=124
    E5             E5 F5 D5A5F5   N.C.
    Gtr I
                                  ~~       ~~           ~~~         ~~
                |--3---| |-3--|
    W          +Q   q  q q q  q   Q.   S S Q.   S  S    Q.    S  S  H
||-----------|------------------|--------------------|-------------------|
||o----------|------------------|--------------------|-------------------|
||-----------|------------------|--------------------|-------------------|
||--2--------|-(2)---------7----|--------------------|-------------------|
||o-2--------|-(2)-/7--8-5----8-|-7----7s8-8----8s10-|-10----10s12-12----|
||--0--------|-(0)--------------|--------------------|-------------------|
|
|   Gtr II
|                                 ~~       ~~           ~~~         ~~
|               |--3---| |-3--|
|   W          +Q   q  q q q  q   Q.   S S Q.   S  S    Q.    S  S  H
||-----------|------------------|--------------------|-------------------|
||o----------|------------------|-5----5s6-6----6s=8-|--8-----8s10-10----|
||-----------|-------------9----|--------------------|-------------------|
||--2--------|-(2)-/9-10-7---10-|--------------------|-------------------|
||o-2--------|-(2)--------------|--------------------|-------------------|
||--0--------|-(0)--------------|--------------------|-------------------|


  E5         N.C. E5         N.C. E5         N.C. E5         F5
  Gtrs I, II
       PM|   ~         PM|   ~         PM|   ~         PM|
  H    S S E Q    H    S S E Q    H    S S E Q    H    S S E Q
|---------------|---------------|---------------|----------------||
|---------------|---------------|---------------|---------------o||
|---------------|---------------|---------------|----------------||
|-2----------3--|-2----------2--|-2-------------|-2--------------||
|-2----2-2------|-2----2-2------|-2----2-2---3--|-2----2-2---3--o||
|-0----0-0------|-0----0-0------|-0----0-0------|-0----0-0---1---||


 Chorus
  E5         D5         A5         Bb5
  W          W          W          W
|----------|----------|----------|------|
|----------|----------|----------|------|
|----------|-7--------|----------|------|
|-2--------|-7--------|-7--------|-8----|
|-2--------|-5--------|-7--------|-8----|
|-0--------|----------|-5--------|-6----|


  E5               D5                  A5                  Bb5
  Gtrs I, II
  W                  W                   W                   W
|----------------|-------------------|-------------------|-------------------|
|----------------|-------------------|-------------------|-------------------|
|----------------|---7---------------|-------------------|-------------------|
|-2--------------|---7---------------|---7---------------|---8---------------|
|-2--------------|---5---------------|---7---------------|---8---------------|
|-0--------------|-------------------|---5---------------|---6---------------|
|
| Gtr V
|             ~~~~~~~~~~          ~~~~~~~~~~          ~~~~~~~~~~          ~~
| H     E  E  Q     +H      E  E  Q     +H      E  E  Q     +H      E  E  Q
|----------------|---------17p13-13--|-(13)--------------|---------18p13-13--|
|------15h17-17--|-(17)--------------|---------15h17-17--|-(17)--------------|
|----------------|-------------------|-------------------|-------------------|
|----------------|-------------------|-------------------|-------------------|
|----------------|-------------------|-------------------|-------------------|
|----------------|-------------------|-------------------|-------------------|


    E5                  D5
      W                   W
||--------------------|-------------------|
||o-------------------|-------------------|
||--------------------|---7---------------|
||----2---------------|---7---------------|
||o---2---------------|---5---------------|
||----0---------------|-------------------|
|
|     ~~~~         ~~~~~~~~~~          ~~~~
|    +H      E  E  Q     +H      E  E  Q
||--(13)--------------|---------17p13-13--|
||o---------15h17-17--|-(17)--------------|
||--------------------|-------------------|
||--------------------|-------------------|
||o-------------------|-------------------|
||--------------------|-------------------|


                     1.
         To Coda
  A5                  Bb5
    W                   W
|-------------------|---------------------||
|-------------------|--------------------o||
|-------------------|---3-----------------||
|---7---------------|---3-----------------||
|---7---------------|---1----------------o||
|---5---------------|---------------------||
|
|~~~~~~          ~~~~~~~~~~          ~~
|  +H      E  E  Q     +H      E  E  Q
|-(13)--------------|---------18p13-13----||
|---------15h17-17--|-(17)---------------o||
|-------------------|---------------------||
|-------------------|---------------------||
|-------------------|--------------------o||
|-------------------|---------------------||


 Solo (Hamm)
  2.
                F5          E5           F5
  Gtr I
  W             E.          E.           E      H
|-------------|-------------------------------------------------------------|
|-------------|-------------------------------------------------------------|
|-3-----------|-5-----------4------------5------5---------------------------|
|-3-----------|-3-----------2------------3------3---------------------------|
|-1-----------|-------------------------------------------------------------|
|-------------|-------------------------------------------------------------|
|
| Gtr II
|       ~~~     PM------------------------------------------------------|
|               |-------6-------| |----6-----|  |----6-----| |-----6-----|
| H     H       S   S S S S     S S S  S S S S  S S S S  S S S  S S S S  S
|-------------|-------------------------------------------------------------|
|-------------|-------------------------------------------------------------|
|-------------|-------7-9-7---------------------------------------7-9-7-----|
|------[8]----|-8--10----------10-8-7----------------------7-8-10-------10--|
|-------------|-----------------------10-8-7-8-10-8-7-8-10------------------|
|-------------|-------------------------------------------------------------|


  E5
  Gtr I
  W
|----------------------|
|----------------------|
|----------------------|
|-2--------------------|
|-2--------------------|
|-0--------------------|
|
| Gtr II
| ~~~~~~~~~~~~~~~~~~~
| Q.    E  +Q.   +S  S
|----------------------|
|----------------------|
|-9----[9]-(9)---(9)---|
|----------------------|
|----------------------|
|----------------------|
|
| Gtr V
| W
|----------------------|
|----------------------|
|----------------------|
|----------------------|
|----------------------|
|----------------------|


  E5          F5        E5
   e.          e.        E        H
|---------------------------------------------------------|
|---------------------------------------------------------|
|-/4-----------5---------4--------4-----------------------|
|-/2-----------3---------2--------2-----------------------|
|---------------------------------------------------------|
|---------------------------------------------------------|
|
|           PM-------|
|  T  T  S  S  S   S  S  T  T  S  S  S  S  S  S  S  S  S
|--------------------------------------------10-12----10--|
|-----------------------10h12p10----10-12-13-------13-----|
|--9h10p=9--------10-12----------12-----------------------|
|----------10-12------------------------------------------|
|---------------------------------------------------------|
|---------------------------------------------------------|
|
|           PM-------|
|  T  T  S  S  S   S  S  T  T  S  S  S  S  S  S  S  S  S
|--------------------------------------------17-19----17--|
|-----------------------17h19p17----17-19-20-------20-----|
|-16h17p16--------17-19----------19-----------------------|
|----------17-19------------------------------------------|
|---------------------------------------------------------|
|---------------------------------------------------------|


  Bb5
   W
|------------------------------|
|------------------------------|
|--3---------------------------|
|--3---------------------------|
|--1---------------------------|
|------------------------------|
|
|  ~~~~~~~~~~~~~
|                 |----3----|
|  H.       +E    S    S    S
|------------------------------|
|-13-------(13)-----------(13)-|
|--------------------(14)------|
|---------------(15)-----------|
|------------------------------|
|------------------------------|
|
|  ~~~~~~~~~~~~~
|  H.       +E    E
|------------------------------|
|-20-------(20)----------------|
|------------------------------|
|------------------------------|
|------------------------------|
|------------------------------|


  F5                 E5                 F5
   E.                 E.                 E           H
|---------------------------------------------------------------------------------------------|
|---------------------------------------------------------------------------------------------|
|--5------------------4------------------5-----------5----------------------------------------|
|--3------------------2------------------3-----------3----------------------------------------|
|---------------------------------------------------------------------------------------------|
|---------------------------------------------------------------------------------------------|
|
|                                           T        T
|                                                                            |------6-------|
|  T   T  T  T  T  T  T   T  T  T  T  T  T  T  T  T  T  T  T  T  T  T  T  T  S  S  S  S  S  S
|-----------------13-----------13-15-17-15-24-17p15-24-17p15p13-17-15-13-15-13----------------|
|-13--15-17-15-17----17--15-17-------------------------------------------------17-15-17-15-13-|
|---------------------------------------------------------------------------------------------|
|---------------------------------------------------------------------------------------------|
|---------------------------------------------------------------------------------------------|
|---------------------------------------------------------------------------------------------|
|
|  W
|---------------------------------------------------------------------------------------------|
|---------------------------------------------------------------------------------------------|
|---------------------------------------------------------------------------------------------|
|---------------------------------------------------------------------------------------------|
|---------------------------------------------------------------------------------------------|
|---------------------------------------------------------------------------------------------|


  E5
  Gtr I
   W
|-------------------------------------------------------------------------|
|-------------------------------------------------------------------------|
|-------------------------------------------------------------------------|
|--2----------------------------------------------------------------------|
|--2----------------------------------------------------------------------|
|--0----------------------------------------------------------------------|
|
| Gtr II
|  |------6-------|  |------6-------|  |------6-------|  |------6-------|
|  S  S  S  S  S  S  S  S  S  S  S  S  S  S  S  S  S  S  S  S  S  S  S  S
|-------------------------------------------------------------------------|
|-12-13-12-10-------------------------------------------------------------|
|-------------12-10-------------------------------------------------------|
|-------------------------------------14-15-14-12----------------12-14-15-|
|-------------------------------------------------15-14-12-14-15----------|
|-------------------12-13-12-10-12-13-------------------------------------|


  E5              F5             E5
   e.             e.              E         H
|-------------------------------------------------|
|-------------------------------------------------|
|-/4--------------5---------------4---------4-----|
|-/2--------------3---------------2---------2-----|
|-------------------------------------------------|
|-------------------------------------------------|
|
|                                           ~~~~
|  |--------6---------|  |------6-------|
|  S   S  S  S  S     S  S  S  S  S  S  S   H
|-------------------------------------------------|
|-------------------------------------------------|
|-------------------------------------------------|
|-14--12-------------------------12-14-15-[14]----|
|--------15-14-12-------12-14-15------------------|
|--------------------15---------------------------|


  Bb5
  Gtr I
   W
|-------------------------------------------------------------------------|
|-------------------------------------------------------------------------|
|--3----------------------------------------------------------------------|
|--3----------------------------------------------------------------------|
|--1----------------------------------------------------------------------|
|-------------------------------------------------------------------------|
|
| Gtr II
|  |------6-------|  |------6-------|  |------6-------|  |------6-------|
|  S  S  S  S  S  S  S  S  S  S  S  S  S  S  S  S  S  S  S  S  S  S  S  S
|-------------------------------------------------------------------------|
|-------------------------------------------------------------------------|
|----------------------------------------------------14-------------14-12-|
|----------12-14-15-17-15-14-12----------12-14-15-17----12-14-15-17-------|
|-13-15-16----------------------16-15-16----------------------------------|
|-------------------------------------------------------------------------|
|
| Gtr V
|  W
|-------------------------------------------------------------------------|
|-------------------------------------------------------------------------|
|-------------------------------------------------------------------------|
|-------------------------------------------------------------------------|
|-------------------------------------------------------------------------|
|-------------------------------------------------------------------------|


  F5             E5             F5
   E.            E.              E        H
|----------------------------------------------------------------------------|
|----------------------------------------------------------------------------|
|--5-------------4---------------5--------5----------------------------------|
|--3-------------2---------------3--------3----------------------------------|
|----------------------------------------------------------------------------|
|----------------------------------------------------------------------------|
|
|  |--------6--------|  |------6-------|  |------6-------|  |--3--|
|  S  S  S  S  S     S  S  S  S  S  S  S  S  S  S  S  S  S  S  S  S  E
|-------------------------------------------------------------15-17-20b22r===|
|-------------------------------------13-15p13-15p13-15-17-18----------------|
|-15p14-15p14-12-------------12-14-15----------------------------------------|
|-------------------15-14-15-------------------------------------------------|
|----------------------------------------------------------------------------|
|----------------------------------------------------------------------------|
|
|  H.                                                       E        E
|-------------------------------------------------------------------17b19r===|
|----------------------------------------------------------------------------|
|----------------------------------------------------------------------------|
|----------------------------------------------------------------------------|
|----------------------------------------------------------------------------|
|----------------------------------------------------------------------------|


  E5
   W
|---------------------------------------|
|---------------------------------------|
|---------------------------------------|
|--2------------------------------------|
|--2------------------------------------|
|--0------------------------------------|
|
|           |---3---|  |--3--|  |--3--|
|  Q       +E    E  E  E  E  E  E  E  E
|-20b22===(20)r-19-20-17-19-15-17-14-15-|
|---------------------------------------|
|---------------------------------------|
|---------------------------------------|
|---------------------------------------|
|---------------------------------------|
|
|           |---3---|  |--3--|  |--3--|
|  Q       +E    E  E  E  E  E  E  E  E
|-17b19===(17)r-15-17-14-15-12-14-10-12-|
|---------------------------------------|
|---------------------------------------|
|---------------------------------------|
|---------------------------------------|
|---------------------------------------|


  E5        F5 E5
   e.       e.  E        H
|--------------------------------------------|
|--------------------------------------------|
|-/4--------5---4--------4-------------------|
|-/2--------3---2--------2-------------------|
|--------------------------------------------|
|--------------------------------------------|
|
|                                ~~~~~~~~~~~
|               |--3--|
|  e   Q        S  S  S  E      +E    Q
|-14--14b15----14p12----14b15==(14)r-14b15===|
|--------------------15----------------------|
|--------------------------------------------|
|--------------------------------------------|
|--------------------------------------------|
|--------------------------------------------|
|
|                                ~~~~~~~~~~~
|               |--3--|
|  e   Q        S  S  S  E      +E    Q
|-10--10b12----10p=8----10b12==(10)r-10b12---|
|--------------------12----------------------|
|--------------------------------------------|
|--------------------------------------------|
|--------------------------------------------|
|--------------------------------------------|


  Bb5
  Gtr I
    W
|----------------------------------------------------|
|----------------------------------------------------|
|---3------------------------------------------------|
|---3------------------------------------------------|
|---1------------------------------------------------|
|----------------------------------------------------|
|
| Gtr II
|   ~~~~~                               ~~~~~~~~~~~~~~
|         |----3----|   |--3--|
|  +E     S    S    S   e  e  e  E     +E       +Q
|-(14)r----------------17-19-20-20b22r(20)b22==(20)--|
|------------(19)h(20)-------------------------------|
|-------(21)-----------------------------------------|
|----------------------------------------------------|
|----------------------------------------------------|
|----------------------------------------------------|


  F5        E5          F5
    E.      E.           E        H
|--------------------------------------|
|--------------------------------------|
|---5-------4------------5--------5----|
|---3-------2------------3--------3----|
|--------------------------------------|
|--------------------------------------|
|
|~~~~~~                           ~~
|               |------6-------|
|  +E   +E      S  S  S  S  S  S  H
|-(20)-(20)r===19h20p19-17-------------|
|--------------------------17----------|
|-----------------------------17-------|
|--------------------------------------|
|--------------------------------19----|
|--------------------------------------|


  E5                              E5  F5 E5
    W                              e.  e. E  H
|-------------------------------|----------------------|
|-------------------------------|----------------------|
|-------------------------------|-/4---5--4--4---------|
|---2---------------------------|-/2---3--2--2---------|
|---2---------------------------|----------------------|
|---0---------------------------|----------------------|
|
|   ~~~~                               T     T      T
|  +H      E      +E   +E   +E     E.  E. E  E. E.  E
|---------24b27==(24)-(24)-(24)r|=22--24p20-24p15--24--|
|-------------------------------|----------------------|
|-------------------------------|----------------------|
|-------------------------------|----------------------|
|-(19)--------------------------|----------------------|
|-------------------------------|----------------------|


  Bb5
  Gtr I
   W
|-------------------------------------------------------------------------|
|-------------------------------------------------------------------------|
|--3----------------------------------------------------------------------|
|--3----------------------------------------------------------------------|
|--1----------------------------------------------------------------------|
|-------------------------------------------------------------------------|
|
| Gtr II
|  |------6-------|  |------6-------|  |------6-------|  |------6-------|
|  S  S  S  S  S  S  S  S  S  S  S  S  S  S  S  S  S  S  S  S  S  S  S  S
|-------------------------------------------------------------------------|
|-------------------------------------------------------------------------|
|----------------16-18-19-18-16----------------------18-19-21-19-18-------|
|-------------------------------16-15-------------------------------17-16-|
|----------17-18-------------------------------19-20----------------------|
|-15-17-18----------------------------17-19-20----------------------------|
|
| Gtr V
|  |------6-------|  |------6-------|  |------6-------|  |------6-------|
|  S  S  S  S  S  S  S  S  S  S  S  S  S  S  S  S  S  S  S  S  S  S  S  S
|-------------------------------------------------------------------------|
|-------------------------------------------------------------------------|
|----------------11-13-14-13-11----------------------13-14-16-14-13-------|
|-------------------------------11-10-------------------------------12-11-|
|----------12-13-------------------------------14-15----------------------|
|-10-12-14----------------------------12-14-15----------------------------|


  F5              E5             F5
   E.             E.              E        H
|-----------------------------------------------------------------------------|
|-----------------------------------------------------------------------------|
|--5--------------4---------------5--------5----------------------------------|
|--3--------------2---------------3--------3----------------------------------|
|-----------------------------------------------------------------------------|
|-----------------------------------------------------------------------------|
|
|  |--------6---------|  |------6-------|  |------6-------|  |------6-------|
|  S   S  S  S  S     S  S  S  S  S  S  S  S  S  S  S  S  S  S  S  S  S  S  S
|-----------------------------------------------------------------------------|
|--------------------15-17-19-17-15----------------------17-19-20-19-17-------|
|-----------------------------------14----------------------------------16----|
|-----------16-17----------------------17----------17-19-------------------19-|
|-14--15-17-------------------------------15-17-19----------------------------|
|-----------------------------------------------------------------------------|
|
|  |--------6---------|  |------6-------|  |------6-------|  |------6-------|
|  S   S  S  S  S     S  S  S  S  S  S  S  S  S  S  S  S  S  S  S  S  S  S  S
|-----------------------------------------------------------------------------|
|--------------------10-12-14-12-10----------------------12-14-15-14-12-------|
|------------------------------------9----------------------------------11----|
|-----------11-12----------------------12----------12-14-------------------14-|
|--9--10-12-------------------------------10-12-14----------------------------|
|-----------------------------------------------------------------------------|


  E5
   W
|-------------------------------------------------------------------------|
|-------------------------------------------------------------------------|
|-------------------------------------------------------------------------|
|--2----------------------------------------------------------------------|
|--2----------------------------------------------------------------------|
|--0----------------------------------------------------------------------|
|
|  |------6-------|  |------6-------|  |------6-------|  |------6-------|
|  S  S  S  S  S  S  S  S  S  S  S  S  S  S  S  S  S  S  S  S  S  S  S  S
|-------------------------------------------------------17-19-17-15-------|
|----------------19-20-22-20-19----------------------20-------------15----|
|-------------------------------17-------------------------------------17-|
|----------19-21-------------------21----------21-22----------------------|
|-17-19-21----------------------------19-21-22----------------------------|
|-------------------------------------------------------------------------|
|
|  |------6-------|  |------6-------|  |------6-------|  |------6-------|
|  S  S  S  S  S  S  S  S  S  S  S  S  S  S  S  S  S  S  S  S  S  S  S  S
|-------------------------------------------------------12-14-12----------|
|----------------14-15-17-15-14----------------------15----------15-------|
|-------------------------------12----------------------------------14----|
|----------14-16-------------------16----------16-17-------------------17-|
|-12-14-16----------------------------14-16-17----------------------------|
|-------------------------------------------------------------------------|


  E5              F5             E5
   e.             e.              E        H
|--------------------------------------------------------------||
|--------------------------------------------------------------||
|-/4--------------5---------------4--------4-------------------||
|-/2--------------3---------------2--------2-------------------||
|--------------------------------------------------------------||
|--------------------------------------------------------------||
|
|                                                  ~~~~~~~~~
|  |--------6---------|  |------6-------|
|  S   S  S  S  S     S  S  S  S  S  S  S  E      +E   +Q
|--------------------17-19-20-19-17-19-20-20b22==(20)-(20)r----||
|--------------------------------------------------------------||
|-----------17-19----------------------------------------------||
|-16--17-19----------------------------------------------------||
|--------------------------------------------------------------||
|--------------------------------------------------------------||
|
|                                                  ~~~~~~~~~
|  |--------6---------|  |------6-------|
|  S   S  S  S  S     S  S  S  S  S  S  S  E      +E   +Q
|--------------------------------------------------------------||
|--------------------17-19-20-19-17-19-20-20b22==(20)-(20)r----||
|--------------------------------------------------------------||
|-----------17-19----------------------------------------------||
|-16--17-19----------------------------------------------------||
|--------------------------------------------------------------||


 Solo (Schuldiner)
  E5                   C5
                  ~~~~~~~~~~        ~~
  Q   E  E  E  E  Q     +Q    E  E  H
|--------------------|-------------------|
|----17p15-15h17-17--|-(17)--17s13-13----|
|--------------------|-------------------|
|--------------------|-------------------|
|--------------------|-------------------|
|--------------------|-------------------|
|
| W                      W
|--------------------|-------------------|
|--------------------|-------------------|
|--------------------|---5---------------|
|-2------------------|---5---------------|
|-2------------------|---3---------------|
|-0------------------|-------------------|
|
|                 ~~~~~~~~~~        ~~
| Q   E  E  E  E  Q     +Q    E  E  H
|--------------------|-------------------|
|--------------------|-------------------|
|----16p14-14h16-16--|-(16)--16s12-12----|
|--------------------|-------------------|
|--------------------|-------------------|
|--------------------|-------------------|


  C                         D5          A5
    ~~~~                     ~~          ~~
   +Q    e  e  e  e  E  E    Q   +E   E  H
|-------------------------|-------------------|
|-(13)--13-15-15-13-13s10-|-10--(10)s13s10----|
|-------------------------|-------------------|
|-------------------------|-------------------|
|-------------------------|-------------------|
|-------------------------|-------------------|
|
|   W                        H           H
|-------------------------|-------------------|
|-------------------------|-------------------|
|-------------------------|--7----------------|
|---5---------------------|--7-----------7----|
|---5---------------------|--5-----------7----|
|---3---------------------|--------------5----|
|
|   ~~~~                     ~~          ~~
|  +Q    e  e  e  e  E  E    Q   +E   E  H
|-------------------------|-------------------|
|-------------------------|-------------------|
|-(12)--12-14-14-12-12s=9-|--9---(9)s12s=9----|
|-------------------------|-------------------|
|-------------------------|-------------------|
|-------------------------|-------------------|


  E5                      C5
    ~~~~             ~~~~~~~~~~        ~~
   +Q    E  E  E  E  Q     +Q    E  E  H
|-----------------------|-------------------|
|-(10)--17p15-15h17-17--|-(17)--17s20-20----|
|-----------------------|-------------------|
|-----------------------|-------------------|
|-----------------------|-------------------|
|-----------------------|-------------------|
|
|   W                       W
|-----------------------|-------------------|
|-----------------------|-------------------|
|-----------------------|---5---------------|
|---2-------------------|---5---------------|
|---2-------------------|---3---------------|
|---0-------------------|-------------------|
|
|   ~~~~             ~~~~~~~~~~        ~~
|  +Q    E  E  E  E  Q     +Q    E  E  H
|-----------------------|-------------------|
|-----------------------|-------------------|
|--(9)--16p14-14h16-16--|-(16)--16s12-12----|
|-----------------------|-------------------|
|-----------------------|-------------------|
|-----------------------|-------------------|


  G5                  D5          A5
         ~~            ~~          ~~~~~~~~
   E  E  H     E  E    Q   +E   E  Q   +E   +E
|-------------------|----------------------------|
|-20s17-17----17s20-|-20--(20)s22-22--(22)-(22)\-|
|-------------------|----------------------------|
|-------------------|----------------------------|
|-------------------|----------------------------|
|-------------------|----------------------------|
|
|  W                   H           H
|-------------------|----------------------------|
|-------------------|----------------------------|
|-------------------|--7-------------------------|
|--5----------------|--7-----------7-------------|
|--5----------------|--5-----------7-------------|
|--3----------------|--------------5-------------|
|
|        ~~            ~~          ~~
|  E  E  H     E  E    Q    E   E  H
|-------------------|----------------------------|
|-------------------|----------------------------|
|-12s14-14----14s12-|-12---12s==9--9-------------|
|-------------------|----------------------------|
|-------------------|----------------------------|
|-------------------|----------------------------|


  E5
  Gtr I
   T        T      T            T      T
   |-3-|    |----6-----| |-3-|  |----6-----| |-3-|
   S S S E  S S S  S S S S S S  S S S  S S S S S S
|--------------------------------------------------|
|-12-8p5p0-12-8p5-12-8p5p0h5h8-12-8p5-12-8p5p0h5h8-|
|--------------------------------------------------|
|--------------------------------------------------|
|--------------------------------------------------|
|--------------------------------------------------|
|
| Gtr II
|  W
|--------------------------------------------------|
|--------------------------------------------------|
|--------------------------------------------------|
|--2-----------------------------------------------|
|--2-----------------------------------------------|
|--0-----------------------------------------------|


  C5
   T            T      T            T      T
   |----6----|  |----6-----| |----6-----|  |----6----|
   S S S S S S  S S S  S S S S S S  S S S  S S S S S S
|------------------------------------------------------|
|-13-8p5p0h5h8-13-8p5-13-8p5p0h5h8-13-8p5-13-8p5p0h5h8-|
|------------------------------------------------------|
|------------------------------------------------------|
|------------------------------------------------------|
|------------------------------------------------------|
|
|  W
|------------------------------------------------------|
|------------------------------------------------------|
|--5---------------------------------------------------|
|--5---------------------------------------------------|
|--3---------------------------------------------------|
|------------------------------------------------------|


  G5
   T            T      T            T      T
   |----6----|  |----6-----| |----6-----|  |----6----|
   S S S S S S  S S S  S S S S S S  S S S  S S S S S S
|------------------------------------------------------|
|-15-8p5p0h5h8-15-8p5-15-8p5p0h5h8-15-8p5-15-8p5p0h5h8-|
|------------------------------------------------------|
|------------------------------------------------------|
|------------------------------------------------------|
|------------------------------------------------------|
|
|  W
|------------------------------------------------------|
|------------------------------------------------------|
|------------------------------------------------------|
|--5---------------------------------------------------|
|--5---------------------------------------------------|
|--3---------------------------------------------------|


  A5
   T            T      T            T      T
   |----6----|  |----6-----| |----6-----|  |----6----|
   S S S S S S  S S S  S S S S S S  S S S  S S S S S S
|-------------------------------------------------------|
|-12-8p5p0h5h8-12-8p5-12-8p5p0h5h8-12-8p5-12-8p5p0h5h8--|
|-------------------------------------------------------|
|-------------------------------------------------------|
|-------------------------------------------------------|
|-------------------------------------------------------|
|
|  W
|-------------------------------------------------------|
|-------------------------------------------------------|
|-------------------------------------------------------|
|--7----------------------------------------------------|
|--7----------------------------------------------------|
|--5----------------------------------------------------|


  E5               C5
           ~~      PM---|   ~~~  PM---|
  |--3--|          |--3--|       |--3--|
  Q  Q  Q  H       q  q  q  Q.   S  S  S
|----------------|-----------------------|
|---------10-----|-----------------------|
|-9-11-12--------|-9-11-12-11------------|
|----------------|---------------9-10-12-|
|----------------|-----------------------|
|----------------|-----------------------|
|
| W                W
|----------------|-----------------------|
|----------------|-----------------------|
|----------------|-5---------------------|
|-2--------------|-5---------------------|
|-2--------------|-3---------------------|
|-0--------------|-----------------------|


  G5                         A5
                                                    ~~~~~~~~~~
  |--3--|   |----3----|        |--------3--------|
  Q  Q  Q   Q    Q    Q        Q   T. T. T  +E   Q  Q.    +S   S
|--------------------------|--------------------------------------|
|---------[10]-[12]-[13]---|-[12]-10h12p10-(10)---------------10h=|
|-9-11-12------------------|--------------------12-11----(11)-----|
|--------------------------|--------------------------------------|
|--------------------------|--------------------------------------|
|--------------------------|--------------------------------------|
|
| W                            W
|--------------------------|--------------------------------------|
|--------------------------|--------------------------------------|
|--------------------------|--------------------------------------|
|-5------------------------|---7----------------------------------|
|-5------------------------|---7----------------------------------|
|-3------------------------|---5----------------------------------|


  E5                     C5
   ~~~            PM|                       ~~
               |--3--|
   Q.    S  S  Q  q  q    S  E.  S S  S  S  H
|----------------------|-------------------------|
|-12-------------10-12-|-12s15--13---13-12-13----|
|-------12-12-12-------|-------------------------|
|----------------------|-------------------------|
|----------------------|-------------------------|
|----------------------|-------------------------|
|
|  W                      W
|----------------------|-------------------------|
|----------------------|-------------------------|
|----------------------|--5----------------------|
|--2-------------------|--5----------------------|
|--2-------------------|--3----------------------|
|--0-------------------|-------------------------|


  G5                                          A5
  Gtr I
                                               PM------|   ~~
   |--3--|        |--3--|        |--3--|
   S  S  S  S E.  S  S  S  S E.  S  S  S  E    E  E  E  E  H
|-------------------------------------------|-------------------|
|-13-12-10-------13-12-10-------13-12-10----|-------------------|
|-----------9-------------11-------------12-|-------------------|
|-------------------------------------------|----------17-16----|
|-------------------------------------------|-12-14-15----------|
|-------------------------------------------|-------------------|
|
| Gtr II
|  W                                           W
|-------------------------------------------|-------------------|
|-------------------------------------------|-------------------|
|-------------------------------------------|-------------------|
|--5----------------------------------------|--7----------------|
|--5----------------------------------------|--7----------------|
|--3----------------------------------------|--5----------------|
|
| Gtr V
|  |--3--|        |--3--|        |--3--|
|  S  S  S  S E.  S  S  S  S E.  S  S  S  E    W
|-20-19-17-------20-19-17-------20-19-17----|-------------------|
|----------17-------------19-------------20-|-------------------|
|-------------------------------------------|-------------------|
|-------------------------------------------|-------------------|
|-------------------------------------------|-------------------|
|-------------------------------------------|-------------------|


  E5                    C5
  Gtr I
                                        ~~~
   |--3--|  |--3--|      |-----3-----|        |--3--|
   Q  Q  Q  Q  Q  Q      Q.     +E   Q  Q.    S  S  S
|-------19-15-17-19---|-20b22r=(20)-19----------------|
|-17------------------|----------------20----17h19h20-|
|----16---------------|-------------------------------|
|---------------------|-------------------------------|
|---------------------|-------------------------------|
|---------------------|-------------------------------|
|
| Gtr II
|  W                     W
|---------------------|-------------------------------|
|---------------------|-------------------------------|
|---------------------|--5----------------------------|
|--2------------------|--5----------------------------|
|--2------------------|--3----------------------------|
|--0------------------|-------------------------------|


  G5
                                      ~~~~~~~
   |------6-------|
   S  S  S  S  S  S  E     +E   E  S  S  +Q
|-17-19-17----17-19-20b22r(20)-19-17----------|
|----------20---------------------------------|
|------------------------------------16-(16)--|
|---------------------------------------------|
|---------------------------------------------|
|---------------------------------------------|
|
|  W
|---------------------------------------------|
|---------------------------------------------|
|---------------------------------------------|
|--5------------------------------------------|
|--5------------------------------------------|
|--3------------------------------------------|


  A5
   PM------------------------------------------|   ~~
   T  T  T  T  T  T  T  T  T  T  T  T  T  T  T  T  H
|-------------------------------------------------------|
|-------------------------------------------------------|
|-------------------14----------------------14-17-16----|
|----------14-15-17----17-15-14----14-15-17-------------|
|-14-15-17----------------------17----------------------|
|-------------------------------------------------------|
|
|  W
|-------------------------------------------------------|
|-------------------------------------------------------|
|-------------------------------------------------------|
|--7----------------------------------------------------|
|--7----------------------------------------------------|
|--5----------------------------------------------------|


  E5                   C5
  Gtr I
                  ~~~~~~~~~~        ~~
  Q   E  E  E  E  Q     +Q    E  E  H
|--------------------|-------------------|
|----17p15-15h17-17--|-(17)--17s13-13----|
|--------------------|-------------------|
|--------------------|-------------------|
|--------------------|-------------------|
|--------------------|-------------------|
|
| Gtr II
| W                      W
|--------------------|-------------------|
|--------------------|-------------------|
|--------------------|---5---------------|
|-2------------------|---5---------------|
|-2------------------|---3---------------|
|-0------------------|-------------------|
|
| Gtr V
|                 ~~~~~~~~~~        ~~
| Q   E  E  E  E  Q     +Q    E  E  H
|--------------------|-------------------|
|--------------------|-------------------|
|----16p14-14h16-16--|-(16)--16s12-12----|
|--------------------|-------------------|
|--------------------|-------------------|
|--------------------|-------------------|


                            D.S. al Coda      &
  G5                        D5          A5       Bb5
    ~~~~                     ~~          ~~
   +Q    e  e  e  e  E  E    Q   +E   E  H        W
|-------------------------|-------------------||-----------------||
|-(13)--13-15-15-13-13s10-|-10--(10)s24-24----||-----------------||
|-------------------------|-------------------||--3--------------||
|-------------------------|-------------------||--3--------------||
|-------------------------|-------------------||--1--------------||
|-------------------------|-------------------||-----------------||
|
|   W                        H           H        W
|-------------------------|-------------------||-----------------||
|-------------------------|-------------------||-----------------||
|-------------------------|--7----------------||--3--------------||
|---5---------------------|--7-----------7----||--3--------------||
|---5---------------------|--5-----------7----||--1--------------||
|---3---------------------|--------------5----||-----------------||
|
|   ~~~~                     ~~          ~~~~~~~~~~~          ~~
|  +Q    e  e  e  e  E  E    Q   +E   E  H        H     E  E  Q
|-------------------------|-------------------||-------18p13-13--||
|-------------------------|-------------------||-17--------------||
|-(12)--12-14-14-12-12s=9-|--9---(9)s16-16----||-----------------||
|-------------------------|-------------------||-----------------||
|-------------------------|-------------------||-----------------||
|-------------------------|-------------------||-----------------||


 Interlude
  E5         D5          A5         Bb5
  Gtr I
  W           W          W           W
|----------|-----------|----------|-------|
|----------|-----------|----------|-------|
|-9--------|-10--------|-9--------|-10----|
|----------|-----------|----------|-------|
|-7--------|--8--------|-7--------|--8----|
|----------|-----------|----------|-------|
|
| Gtr II
| W           W          W           W
|----------|-----------|----------|-------|
|----------|-----------|----------|-------|
|----------|--7--------|----------|-------|
|-2--------|--7--------|-7--------|--8----|
|-2--------|--5--------|-7--------|--8----|
|-0--------|-----------|-5--------|--6----|


  E5         D5          A5         Bb5
  W           W          W           W
|----------|-----------|----------|-------|
|----------|-----------|----------|-------|
|-9--------|-10--------|-9--------|-10----|
|----------|-----------|----------|-------|
|-7--------|--8--------|-7--------|--8----|
|----------|-----------|----------|-------|
|
| W           W          W           W
|----------|-----------|----------|-------|
|----------|-----------|----------|-------|
|----------|--7--------|----------|-------|
|-2--------|--7--------|-7--------|--8----|
|-2--------|--5--------|-7--------|--8----|
|-0--------|-----------|-5--------|--6----|


  E5               D5                  A5                  Bb5
  Gtrs I, II
  W                  W                   W                   W
|----------------|-------------------|-------------------|-------------------|
|----------------|-------------------|-------------------|-------------------|
|----------------|---7---------------|-------------------|-------------------|
|-2--------------|---7---------------|---7---------------|---8---------------|
|-2--------------|---5---------------|---7---------------|---8---------------|
|-0--------------|-------------------|---5---------------|---6---------------|
|
| Gtr V
|             ~~~~~~~~~~          ~~~~~~~~~~          ~~~~~~~~~~          ~~
| H     E  E  Q     +H      E  E  Q     +H      E  E  Q     +H      E  E  Q
|----------------|-------------------|-------------------|-------------------|
|------15h17-17--|-(17)----17s18-18--|-(18)----18s20-20--|-(20)----20p18-18--|
|----------------|-------------------|-------------------|-------------------|
|----------------|-------------------|-------------------|-------------------|
|----------------|-------------------|-------------------|-------------------|
|----------------|-------------------|-------------------|-------------------|


  E5                  D5
    W                   W
|-------------------|-------------------|
|-------------------|-------------------|
|-------------------|---7---------------|
|---2---------------|---7---------------|
|---2---------------|---5---------------|
|---0---------------|-------------------|
|
|   ~~~~         ~~~~~~~~~~          ~~~~
|  +H      E  E  Q     +H      E  E  Q
|-------------------|-------------------|
|-(18)----15h17-17--|-(17)----17s18-18--|
|-------------------|-------------------|
|-------------------|-------------------|
|-------------------|-------------------|
|-------------------|-------------------|


  A5                  Bb5
    W                   W
|-------------------|-------------------|
|-------------------|-------------------|
|-------------------|-------------------|
|---7---------------|---8---------------|
|---7---------------|---8---------------|
|---5---------------|---6---------------|
|
|~~~~~~          ~~~~~~~~~~          ~~
|  +H      E  E  Q     +H      E  E  Q
|-------------------|-------------------|
|-(18)----18s20-20--|-(20)----20p18-18--|
|-------------------|-------------------|
|-------------------|-------------------|
|-------------------|-------------------|
|-------------------|-------------------|


  E5         D5         A5         Bb5
  W          W          W          W
|----------|----------|----------|------|
|----------|----------|----------|------|
|----------|-7--------|----------|------|
|-2--------|-7--------|-7--------|-8----|
|-2--------|-5--------|-7--------|-8----|
|-0--------|----------|-5--------|-6----|


  E5         D5         A5         Bb5
  W          W          W          W
|----------|----------|----------|------||
|----------|----------|----------|------||
|----------|-7--------|----------|------||
|-2--------|-7--------|-7--------|-8----||
|-2--------|-5--------|-7--------|-8----||
|-0--------|----------|-5--------|-6----||


 Outro Solo (Schuldiner)
  E5
  Gtr I
   PM----------------------------------------------------------------------
   |------6-------|  |------6-------|  |------6-------|  |------6-------|
   S  S  S  S  S  S  S  S  S  S  S  S  S  S  S  S  S  S  S  S  S  S  S  S
|-------------------------------------------------------------------------|
|-------------------------------------------------------------------------|
|-17-16-14----------------------------------------------------------------|
|----------17-16-14----------------------------------------------12-14-16-|
|-------------------17-15-14-------------------12-14-15-12-14-15----------|
|----------------------------17-15-14-12-14-15----------------------------|
|
| Gtr II
|  W
|-------------------------------------------------------------------------|
|-------------------------------------------------------------------------|
|-------------------------------------------------------------------------|
|--2----------------------------------------------------------------------|
|--2----------------------------------------------------------------------|
|--0----------------------------------------------------------------------|
|
| Gtr V
|  PM----------------------------------------------------------------------
|  |------6-------|  |------6-------|  |------6-------|  |------6-------|
|  S  S  S  S  S  S  S  S  S  S  S  S  S  S  S  S  S  S  S  S  S  S  S  S
|-------------------------------------------------------------------------|
|-------------------------------------------------------------------------|
|-10--9--7----------------------------------------------------------------|
|----------10--9--7-----------------------------------------------5--7--9-|
|-------------------10--8--7--------------------5--7--8--5--7--8----------|
|----------------------------10--8--7--5--7--8----------------------------|


  D5
 ----------------------------------------------------------------------|
   |------6-------|  |------6-------|  |------6-------|  |------6-------|
   S  S  S  S  S  S  S  S  S  S  S  S  S  S  S  S  S  S  S  S  S  S  S  S
|--------------------------------------------------------------------------|
|--------------------------------------------------------------------------|
|-17-16-14-----------------------------------------------------------------|
|----------17-16-14----------------------------------------------12-14-16--|
|-------------------17-15-14-------------------12-14-15-12-14-15-----------|
|----------------------------17-15-14-12-14-15-----------------------------|
|
|  W
|--------------------------------------------------------------------------|
|--------------------------------------------------------------------------|
|--7-----------------------------------------------------------------------|
|--7-----------------------------------------------------------------------|
|--5-----------------------------------------------------------------------|
|--------------------------------------------------------------------------|
|
|----------------------------------------------------------------------|
|  |------6-------|  |------6-------|  |------6-------|  |------6-------|
|  S  S  S  S  S  S  S  S  S  S  S  S  S  S  S  S  S  S  S  S  S  S  S  S
|--------------------------------------------------------------------------|
|--------------------------------------------------------------------------|
|-10--9--7-----------------------------------------------------------------|
|----------10--9--7-----------------------------------------------5--7--9--|
|-------------------10--8--7--------------------5--7--8--5--7--8-----------|
|----------------------------10--8--7--5--7--8-----------------------------|


  A5
   PM----------------------------------------------------------------------
   |------6-------|  |------6-------|  |------6-------|  |------6-------|
   S  S  S  S  S  S  S  S  S  S  S  S  S  S  S  S  S  S  S  S  S  S  S  S
|-------------------------------------------------------------------------|
|-------------------------------------------------------------------------|
|-17-16-14----------------------------------------------------------------|
|----------17-16-14----------------------------------------------12-14-16-|
|-------------------17-15-14-------------------12-14-15-12-14-15----------|
|----------------------------17-15-14-12-14-15----------------------------|
|
|  W
|-------------------------------------------------------------------------|
|-------------------------------------------------------------------------|
|-------------------------------------------------------------------------|
|--7----------------------------------------------------------------------|
|--7----------------------------------------------------------------------|
|--5----------------------------------------------------------------------|
|
|  PM----------------------------------------------------------------------
|  |------6-------|  |------6-------|  |------6-------|  |------6-------|
|  S  S  S  S  S  S  S  S  S  S  S  S  S  S  S  S  S  S  S  S  S  S  S  S
|-------------------------------------------------------------------------|
|-------------------------------------------------------------------------|
|-10--9--7----------------------------------------------------------------|
|----------10--9--7-----------------------------------------------5--7--9-|
|-------------------10--8--7--------------------5--7--8--5--7--8----------|
|----------------------------10--8--7--5--7--8----------------------------|


  Bb5
 ----------------------------------------------------------------------|
   |------6-------|  |------6-------|  |------6-------|  |------6-------|
   S  S  S  S  S  S  S  S  S  S  S  S  S  S  S  S  S  S  S  S  S  S  S  S
|--------------------------------------------------------------------------|
|--------------------------------------------------------------------------|
|-17-16-14-----------------------------------------------------------------|
|----------17-16-14----------------------------------------------12-14-16--|
|-------------------17-15-14-------------------12-14-15-12-14-15-----------|
|----------------------------17-15-14-12-14-15-----------------------------|
|
|  W
|--------------------------------------------------------------------------|
|--------------------------------------------------------------------------|
|--------------------------------------------------------------------------|
|--8-----------------------------------------------------------------------|
|--8-----------------------------------------------------------------------|
|--6-----------------------------------------------------------------------|
|
|----------------------------------------------------------------------|
|  |------6-------|  |------6-------|  |------6-------|  |------6-------|
|  S  S  S  S  S  S  S  S  S  S  S  S  S  S  S  S  S  S  S  S  S  S  S  S
|--------------------------------------------------------------------------|
|--------------------------------------------------------------------------|
|-10--9--7-----------------------------------------------------------------|
|----------10--9--7-----------------------------------------------5--7--9--|
|-------------------10--8--7--------------------5--7--8--5--7--8-----------|
|----------------------------10--8--7--5--7--8-----------------------------|


  E5
   PM----------------------------------------------------------------------
   |------6-------|  |------6-------|  |------6-------|  |------6-------|
   S  S  S  S  S  S  S  S  S  S  S  S  S  S  S  S  S  S  S  S  S  S  S  S
|-------------------------------------------------------------------------|
|-------------------------------------------------------------------------|
|-17-16-14----------------------------------------------------------------|
|----------17-16-14----------------------------------------------12-14-16-|
|-------------------17-15-14-------------------12-14-15-12-14-15----------|
|----------------------------17-15-14-12-14-15----------------------------|
|
|  W
|-------------------------------------------------------------------------|
|-------------------------------------------------------------------------|
|-------------------------------------------------------------------------|
|--2----------------------------------------------------------------------|
|--2----------------------------------------------------------------------|
|--0----------------------------------------------------------------------|
|
|  PM----------------------------------------------------------------------
|  |------6-------|  |------6-------|  |------6-------|  |------6-------|
|  S  S  S  S  S  S  S  S  S  S  S  S  S  S  S  S  S  S  S  S  S  S  S  S
|-------------------------------------------------------------------------|
|-------------------------------------------------------------------------|
|-10--9--7----------------------------------------------------------------|
|----------10--9--7-----------------------------------------------5--7--9-|
|-------------------10--8--7--------------------5--7--8--5--7--8----------|
|----------------------------10--8--7--5--7--8----------------------------|


  D5
 ----------------------------------------------------------------------|
   |------6-------|  |------6-------|  |------6-------|  |------6-------|
   S  S  S  S  S  S  S  S  S  S  S  S  S  S  S  S  S  S  S  S  S  S  S  S
|--------------------------------------------------------------------------|
|--------------------------------------------------------------------------|
|-17-16-14-----------------------------------------------------------------|
|----------17-16-14----------------------------------------------12-14-16--|
|-------------------17-15-14-------------------12-14-15-12-14-15-----------|
|----------------------------17-15-14-12-14-15-----------------------------|
|
|  W
|--------------------------------------------------------------------------|
|--------------------------------------------------------------------------|
|--7-----------------------------------------------------------------------|
|--7-----------------------------------------------------------------------|
|--5-----------------------------------------------------------------------|
|--------------------------------------------------------------------------|
|
|----------------------------------------------------------------------|
|  |------6-------|  |------6-------|  |------6-------|  |------6-------|
|  S  S  S  S  S  S  S  S  S  S  S  S  S  S  S  S  S  S  S  S  S  S  S  S
|--------------------------------------------------------------------------|
|--------------------------------------------------------------------------|
|-10--9--7-----------------------------------------------------------------|
|----------10--9--7-----------------------------------------------5--7--9--|
|-------------------10--8--7--------------------5--7--8--5--7--8-----------|
|----------------------------10--8--7--5--7--8-----------------------------|


  A5
   PM----------------------------------------------------------------------
   |------6-------|  |------6-------|  |------6-------|  |------6-------|
   S  S  S  S  S  S  S  S  S  S  S  S  S  S  S  S  S  S  S  S  S  S  S  S
|-------------------------------------------------------------------------|
|-------------------------------------------------------------------------|
|-17-16-14----------------------------------------------------------------|
|----------17-16-14----------------------------------------------12-14-16-|
|-------------------17-15-14-------------------12-14-15-12-14-15----------|
|----------------------------17-15-14-12-14-15----------------------------|
|
|  W
|-------------------------------------------------------------------------|
|-------------------------------------------------------------------------|
|-------------------------------------------------------------------------|
|--7----------------------------------------------------------------------|
|--7----------------------------------------------------------------------|
|--5----------------------------------------------------------------------|
|
|  PM----------------------------------------------------------------------
|  |------6-------|  |------6-------|  |------6-------|  |------6-------|
|  S  S  S  S  S  S  S  S  S  S  S  S  S  S  S  S  S  S  S  S  S  S  S  S
|-------------------------------------------------------------------------|
|-------------------------------------------------------------------------|
|-10--9--7----------------------------------------------------------------|
|----------10--9--7-----------------------------------------------5--7--9-|
|-------------------10--8--7--------------------5--7--8--5--7--8----------|
|----------------------------10--8--7--5--7--8----------------------------|


  Bb5
 ----------------------------------------------------------------------|
   |------6-------|  |------6-------|  |------6-------|  |------6-------|
   S  S  S  S  S  S  S  S  S  S  S  S  S  S  S  S  S  S  S  S  S  S  S  S
|--------------------------------------------------------------------------|
|--------------------------------------------------------------------------|
|-17-16-14-----------------------------------------------------------------|
|----------17-16-14----------------------------------------------12-14-16--|
|-------------------17-15-14-------------------12-14-15-12-14-15-----------|
|----------------------------17-15-14-12-14-15-----------------------------|
|
|  W
|--------------------------------------------------------------------------|
|--------------------------------------------------------------------------|
|--------------------------------------------------------------------------|
|--8-----------------------------------------------------------------------|
|--8-----------------------------------------------------------------------|
|--6-----------------------------------------------------------------------|
|
|----------------------------------------------------------------------|
|  |------6-------|  |------6-------|  |------6-------|  |------6-------|
|  S  S  S  S  S  S  S  S  S  S  S  S  S  S  S  S  S  S  S  S  S  S  S  S
|--------------------------------------------------------------------------|
|--------------------------------------------------------------------------|
|-10--9--7-----------------------------------------------------------------|
|----------10--9--7-----------------------------------------------5--7--9--|
|-------------------10--8--7--------------------5--7--8--5--7--8-----------|
|----------------------------10--8--7--5--7--8-----------------------------|


  E5                    D5
    ~~~~                 ~~
           |---3----|          |---3----|
    H      Q  Q  E  E    H     Q  Q  E  E
|---------------------|-------------------|
|---------------------|-------------------|
|---------14-16-16h17-|-16----14-16-16h17-|
|-[14]----------------|-------------------|
|---------------------|-------------------|
|---------------------|-------------------|
|
|   W                    W
|---------------------|-------------------|
|---------------------|-------------------|
|---------------------|--7----------------|
|---2-----------------|--7----------------|
|---2-----------------|--5----------------|
|---0-----------------|-------------------|
|
|   ~~~~                 ~~
|          |---3----|          |---3----|
|   H      Q  Q  E  E    H     Q  Q  E  E
|---------------------|-------------------|
|---------------------|-------------------|
|--16-----------------|-------------------|
|---------12-14-14h15-|-14----12-14-14h15-|
|---------------------|-------------------|
|---------------------|-------------------|


  A5                  Bb5
   ~~                  ~~~~~~~       ~~
         |---3----|    |----3-----|
   H     Q  Q  E  E    Q  +Q   E  E  H
|-------------------|---------------------|
|-------------------|---------------------|
|-16----14-16-16h17-|-19-(19)-17p16-17----|
|-------------------|---------------------|
|-------------------|---------------------|
|-------------------|---------------------|
|
|  W                   W
|-------------------|---------------------|
|-------------------|---------------------|
|-------------------|---------------------|
|--7----------------|--8------------------|
|--7----------------|--8------------------|
|--5----------------|--6------------------|
|
|  ~~                  ~~~~~~~       ~~
|        |---3----|    |----3-----|
|  H     Q  Q  E  E    Q  +Q   E  E  H
|-------------------|---------------------|
|-------------------|---------------------|
|-------------------|---------------------|
|-14----12-14-14h15-|-17-(17)-15p14-15----|
|-------------------|---------------------|
|-------------------|---------------------|


  E5                  D5
   ~~                  ~~
         |---3----|          |---3----|
   H     Q  Q  E  E    H     Q  Q  E  E
|-------------------|-------------------|
|-------------------|-------------------|
|-16----14-16-16h17-|-16----14-16-16h17-|
|-------------------|-------------------|
|-------------------|-------------------|
|-------------------|-------------------|
|
|  W                   W
|-------------------|-------------------|
|-------------------|-------------------|
|-------------------|--7----------------|
|--2----------------|--7----------------|
|--2----------------|--5----------------|
|--0----------------|-------------------|
|
|  ~~                  ~~
|        |---3----|          |---3----|
|  H     Q  Q  E  E    H     Q  Q  E  E
|-------------------|-------------------|
|-------------------|-------------------|
|-------------------|-------------------|
|-14----12-14-14h15-|-14----12-14-14h15-|
|-------------------|-------------------|
|-------------------|-------------------|


  A5                  Bb5
   ~~                  ~~~~~~~       ~~
         |---3----|    |----3-----|
   H     Q  Q  E  E    Q  +Q   E  E  H
|-------------------|---------------------|
|-------------------|---------------------|
|-16----14-16-16h17-|-19-(19)-17p16-17----|
|-------------------|---------------------|
|-------------------|---------------------|
|-------------------|---------------------|
|
|  W                   W
|-------------------|---------------------|
|-------------------|---------------------|
|-------------------|---------------------|
|--7----------------|--8------------------|
|--7----------------|--8------------------|
|--5----------------|--6------------------|
|
|  ~~                  ~~~~~~~       ~~
|        |---3----|    |----3-----|
|  H     Q  Q  E  E    Q  +Q   E  E  H
|-------------------|---------------------|
|-------------------|---------------------|
|-------------------|---------------------|
|-14----12-14-14h15-|-17-(17)-15p14-15----|
|-------------------|---------------------|
|-------------------|---------------------|


  E5                  D5
   ~~                   ~~~~
         |---3----|            |---3----|
   H     Q  Q  E  E     H      Q  Q  E  E
|-------------------|---------------------|
|-------------------|---------------------|
|-16----14-16-16h17-|-[16]----14-16-16h17-|
|-------------------|---------------------|
|-------------------|---------------------|
|-------------------|---------------------|
|
|  W                    W
|-------------------|---------------------|
|-------------------|---------------------|
|-------------------|---7-----------------|
|--2----------------|---7-----------------|
|--2----------------|---5-----------------|
|--0----------------|---------------------|
|
|  ~~                   ~~~~
|        |---3----|            |---3----|
|  H     Q  Q  E  E     H      Q  Q  E  E
|-------------------|---------------------|
|-------------------|---------------------|
|-------------------|---------------------|
|-14----12-14-14h15-|--14-----12-14-14h15-|
|-------------------|---------------------|
|-------------------|---------------------|


  A5                    Bb5
    ~~~~                 ~~~~~~~       ~~
           |---3----|    |----3-----|
    H      Q  Q  E  E    Q  +Q   E  E  H
|---------------------|---------------------|
|---------------------|---------------------|
|-[16]----14-16-16h17-|-19-(19)-17p16-17----|
|---------------------|---------------------|
|---------------------|---------------------|
|---------------------|---------------------|
|
|   W                    W
|---------------------|---------------------|
|---------------------|---------------------|
|---------------------|---------------------|
|---7-----------------|--8------------------|
|---7-----------------|--8------------------|
|---5-----------------|--6------------------|
|
|   ~~~~                 ~~~~~~~       ~~
|          |---3----|    |----3-----|
|   H      Q  Q  E  E    Q  +Q   E  E  H
|---------------------|---------------------|
|---------------------|---------------------|
|---------------------|---------------------|
|--14-----12-14-14h15-|-17-(17)-15p14-15----|
|---------------------|---------------------|
|---------------------|---------------------|


  E5                  D5
   ~~                   ~~~~
         |---3----|            |---3----|
   H     Q  Q  E  E     H      Q  Q  E  E
|-------------------|---------------------|
|-------------------|---------------------|
|-16----14-16-16h17-|-[16]----14-16-16h17-|
|-------------------|---------------------|
|-------------------|---------------------|
|-------------------|---------------------|
|
|  W                    W
|-------------------|---------------------|
|-------------------|---------------------|
|-------------------|---7-----------------|
|--2----------------|---7-----------------|
|--2----------------|---5-----------------|
|--0----------------|---------------------|
|
|  ~~                   ~~~~
|        |---3----|            |---3----|
|  H     Q  Q  E  E     H      Q  Q  E  E
|-------------------|---------------------|
|-------------------|---------------------|
|-------------------|---------------------|
|-14----12-14-14h15-|--14-----12-14-14h15-|
|-------------------|---------------------|
|-------------------|---------------------|


  A5                    Bb5
    ~~~~                 ~~~~~~~       ~~
           |---3----|    |----3-----|
    H      Q  Q  E  E    Q  +Q   E  E  H
|---------------------|---------------------|
|---------------------|---------------------|
|-[16]----14-16-16h17-|-19-(19)-17p16-17----|
|---------------------|---------------------|
|---------------------|---------------------|
|---------------------|---------------------|
|
|   W                    W
|---------------------|---------------------|
|---------------------|---------------------|
|---------------------|---------------------|
|---7-----------------|--8------------------|
|---7-----------------|--8------------------|
|---5-----------------|--6------------------|
|
|   ~~~~                 ~~~~~~~       ~~
|          |---3----|    |----3-----|
|   H      Q  Q  E  E    Q  +Q   E  E  H
|---------------------|---------------------|
|---------------------|---------------------|
|---------------------|---------------------|
|--14-----12-14-14h15-|-17-(17)-15p14-15----|
|---------------------|---------------------|
|---------------------|---------------------|


  E5                  D5
   ~~                   ~~~~
         |---3----|            |---3----|
   H     Q  Q  E  E     H      Q  Q  E  E
|-------------------|---------------------|
|-------------------|---------------------|
|-16----14-16-16h17-|-[16]----14-16-16h17-|
|-------------------|---------------------|
|-------------------|---------------------|
|-------------------|---------------------|
|
|  W                    W
|-------------------|---------------------|
|-------------------|---------------------|
|-------------------|---7-----------------|
|--2----------------|---7-----------------|
|--2----------------|---5-----------------|
|--0----------------|---------------------|
|
|  ~~                   ~~~~
|        |---3----|            |---3----|
|  H     Q  Q  E  E     H      Q  Q  E  E
|-------------------|---------------------|
|-------------------|---------------------|
|-------------------|---------------------|
|-14----12-14-14h15-|--14-----12-14-14h15-|
|-------------------|---------------------|
|-------------------|---------------------|


  A5                    Bb5
    ~~~~                 ~~~~~~~       ~~
           |---3----|    |----3-----|
    H      Q  Q  E  E    Q  +Q   E  E  H
|---------------------|---------------------|
|---------------------|---------------------|
|-[16]----14-16-16h17-|-19-(19)-17p16-17----|
|---------------------|---------------------|
|---------------------|---------------------|
|---------------------|---------------------|
|
|   W                    W
|---------------------|---------------------|
|---------------------|---------------------|
|---------------------|---------------------|
|---7-----------------|--8------------------|
|---7-----------------|--8------------------|
|---5-----------------|--6------------------|
|
|   ~~~~                 ~~~~~~~       ~~
|          |---3----|    |----3-----|
|   H      Q  Q  E  E    Q  +Q   E  E  H
|---------------------|---------------------|
|---------------------|---------------------|
|---------------------|---------------------|
|--14-----12-14-14h15-|-17-(17)-15p14-15----|
|---------------------|---------------------|
|---------------------|---------------------|


  E5                        D5
      ~~~~~~~                   ~~~~~~~
   |3-|                      |3-|
   E  Q  +H.                 E  Q  +H.
|-------------------------|-------------------------|
|-------------------------|-------------------------|
|-17p16-(16)--------------|-16p14-(14)--------------|
|-------------------------|-------------------------|
|-------------------------|-------------------------|
|-------------------------|-------------------------|
|
|  W                         W
|-------------------------|-------------------------|
|-------------------------|-------------------------|
|-------------------------|--7----------------------|
|--2----------------------|--7----------------------|
|--2----------------------|--5----------------------|
|--0----------------------|-------------------------|
|
|     ~~~~~~~     ~~~~~~~       ~~~~~~~     ~~~~~~~
|  |3-|        |3-|          |3-|        |3-|
|  E  Q  +Q    E  Q  +Q      E  Q  +Q    E  Q  +Q
|-------------------------|-------------------------|
|-------------------------|-------------------------|
|-------------------------|-------------------------|
|-15p14-(14)--14h15-(15)--|-15h17-(17)--17p15-(15)--|
|-------------------------|-------------------------|
|-------------------------|-------------------------|


  A5                        Bb5
      ~~~~~~~                   ~~~~~~~
   |3-|                      |3-|
   E  Q  +H.                 E  Q  +H.
|-------------------------|-------------------------|
|-------------------------|-------------------------|
|-17p16-(16)--------------|-16h17-(17)--------------|
|-------------------------|-------------------------|
|-------------------------|-------------------------|
|-------------------------|-------------------------|
|
|  W                         W
|-------------------------|-------------------------|
|-------------------------|-------------------------|
|-------------------------|-------------------------|
|--7----------------------|--8----------------------|
|--7----------------------|--8----------------------|
|--5----------------------|--6----------------------|
|
|     ~~~~~~~     ~~~~~~~       ~~~~~~~     ~~~~~~~
|  |3-|        |3-|          |3-|        |3-|
|  E  Q  +Q    E  Q  +Q      E  Q  +Q    E  Q  +Q
|-------------------------|-------------------------|
|-------------------------|-------------------------|
|-------------------------|-------------------------|
|-15p14-(14)--14h15-(15)--|-15h17-(17)--17p15-(15)--|
|-------------------------|-------------------------|
|-------------------------|-------------------------|


  E5                        D5
      ~~~~~~~                   ~~~~~~~
   |3-|                      |3-|
   E  Q  +H.                 E  Q  +H.
|-------------------------|-------------------------|
|-------------------------|-------------------------|
|-17p16-(16)--------------|-16p14-(14)--------------|
|-------------------------|-------------------------|
|-------------------------|-------------------------|
|-------------------------|-------------------------|
|
|  W                         W
|-------------------------|-------------------------|
|-------------------------|-------------------------|
|-------------------------|--7----------------------|
|--2----------------------|--7----------------------|
|--2----------------------|--5----------------------|
|--0----------------------|-------------------------|
|
|     ~~~~~~~     ~~~~~~~       ~~~~~~~     ~~~~~~~
|  |3-|        |3-|          |3-|        |3-|
|  E  Q  +Q    E  Q  +Q      E  Q  +Q    E  Q  +Q
|-------------------------|-------------------------|
|-------------------------|-------------------------|
|-------------------------|-------------------------|
|-15p14-(14)--14h15-(15)--|-15h17-(17)--17p15-(15)--|
|-------------------------|-------------------------|
|-------------------------|-------------------------|


  A5                        Bb5
      ~~~~~~~                   ~~~~~~~
   |3-|                      |3-|
   E  Q  +H.                 E  Q  +H.
|-------------------------|-------------------------*|
|-------------------------|-------------------------*|
|-17p16-(16)--------------|-16h17-(17)--------------*|
|-------------------------|-------------------------*|
|-------------------------|-------------------------*|
|-------------------------|-------------------------*|
|
|  W                         W
|-------------------------|-------------------------*|
|-------------------------|-------------------------*|
|-------------------------|-------------------------*|
|--7----------------------|--8----------------------*|
|--7----------------------|--8----------------------*|
|--5----------------------|--6----------------------*|
|
|     ~~~~~~~     ~~~~~~~       ~~~~~~~     ~~~~~~~
|  |3-|        |3-|          |3-|        |3-|
|  E  Q  +Q    E  Q  +Q      E  Q  +Q    E  Q  +Q
|-------------------------|-------------------------*|
|-------------------------|-------------------------*|
|-------------------------|-------------------------*|
|-15p14-(14)--14h15-(15)--|-15h17-(17)--17p15-(15)--*|
|-------------------------|-------------------------*|
|-------------------------|-------------------------*|



Duration Legend
---------------
W - whole; H - half; Q - quarter; E - 8th; S - 16th; T - 32nd; X - 64th; a - acciaccatura
+ - note tied to previous; . - note dotted; .. - note double dotted
Uncapitalized letters represent notes that are staccato (1/2 duration)
Irregular groupings are notated above the duration line
Duration letters will always appear directly above the note/fret number it represents the
duration for.  Duration letters with no fret number below them represent rests.  Multi-
bar rests are notated in the form Wxn, where n is the number of bars to rest for.  Low
melody durations appear below the staff

Tablature Legend
----------------
 h   - hammer-on
 p   - pull-off
 b   - bend
 pb  - pre-bend
 r   - bend release (if no number after the r, then release immediately)
 /\  - slide into or out of (from/to "nowhere")
 s   - legato slide
 S   - shift slide
 - natural harmonic
[n]  - artificial harmonic
n(n) - tapped harmonic
 ~   - vibrato
 tr  - trill
 T   - tap
 TP  - trem. picking
 PM  - palm muting
\n/  - tremolo bar dip; n = amount to dip
 \n  - tremolo bar down
 n/  - tremolo bar up
/n\  - tremolo bar inverted dip
 =   - hold bend; also acts as connecting device for hammers/pulls
 <> - volume swell (louder/softer)
 x   - on rhythm slash represents muted slash
 o   - on rhythm slash represents single note slash

Misc Legend
-----------
 |  - bar
||  - double bar
||o - repeat start
o|| - repeat end
*|  - double bar (ending)
 :  - bar (freetime)
 $  - Segno
 &  - Coda
Tempo markers -  = BPM(8/16=s8/s16), where s8 = swing 8ths, s16 = swing 16ths


            
            
Suggest correction
Creating personal tab
Creating personal tab
You can edit any tab online and save it as your Personal.

You can edit, replace or remove any tab part or add personal notes – all changes will be seen only by you.

Personal tabs can be accessed anytime from any device, even offline.
Learn more »
comments
print report bad tab
guest
You may want to rate the tab now too:
select rating
Wanna post a correction for this tab? Suggest correction