Oops, an error
Loading. Please wait.

Cosmic Sea tab

version 3
version 3

Whole song

Interactive

by Death
1,297 views 1 this week
no commentswrite comment
1 2 3 4 5
2 more votes to show rating
add to favorites
×
Save as Personal and add changes to this tab that will be seen only by you. Learn more ›
×
You can save this tab as Personal to edit and correct it or add notes. All changes will be seen only by you. Learn more »
launch autoscroll
font size
0
reset
how to read this tab
guitar tuner
backing track
0:00
0:00
edit
Autoscroll
slow
fast
+/-
esc
set tempo
stop
#----------------------------------PLEASE NOTE---------------------------------#
#This file is the author's own work and represents their interpretation of the #
#song. You may only use this file for private study, scholarship, or research. #
#------------------------------------------------------------------------------#

COSMIC SEA 
As recorded by Death
(From the 1991 Album HUMAN)

Transcribed by James Williams (Inverted)
        

Music by Chuck Schuldiner

Gtr I (D G C F A D) - 'Untitled'
Gtr II (D G C F A D) - 'Aahs'
Gtr III (D G C F A D) - 'Untitled'
Gtr IV (D G C F A D) - 'Untitled'

 Intro
  Moderate Metal Q=107
  N.C.
 4/4
  Gtrs I, II
  <                  <              <
  W          +H      H       +H     H      +W
|----------|--------------|--------------|--------|
|----------|--------------|--------------|--------|
|----------|--------------|--------------|--------|
|----------|--------------|--------------|--------|
|----------|--------11----|-(11)---------|--------|
|-8--------|-(8)----------|---------8----|-(8)----|


    C           G           B          F#
    Gtrs III, IV
     W           W          W           W
||------------|-----------|----------|--------||
||o-----------|-----------|----------|-------o||
||------------|-----------|----------|--------||
||------------|-----------|----------|--------||
||o-----------|-----------|----------|-------o||
||------------|-----------|----------|--------||
|
|   Gtrs I, II
|    W           W          W           W
||------------|-----------|----------|--------||
||o-----------|-----------|----------|-------o||
||------------|-12--------|----------|-11-----||
||--10--------|-----------|-9--------|--------||
||o-----------|-10--------|----------|--9----o||
||---8--------|-----------|-7--------|--------||


 Guitar Solo - Schuldiner
  C
  Gtr III
   |--3--|  |--3--|  |--3--|  |--3--|  |--3--|  |--3--|  |--3--|  |--3--|
   S  S  S  S  S  S  S  S  S  S  S  S  S  S  S  S  S  S  S  S  S  S  S  S
|-------------------------------------------------------------------------|
|-13p12p10----------------------------13p12p10----------------------------|
|----------12p11p=9----------------------------12p11p=9-------------------|
|-------------------12p10p=9----------------------------12p10p=9----------|
|----------------------------12p10p=9----------------------------12p10p=9-|
|-------------------------------------------------------------------------|
|
| Gtr IV
|  |--3--|  |--3--|  |--3--|  |--3--|  |--3--|  |--3--|  |--3--|  |--3--|
|  S  S  S  S  S  S  S  S  S  S  S  S  S  S  S  S  S  S  S  S  S  S  S  S
|-------------------------------------------------------------------------|
|-------------------------------------------------------------------------|
|-14p12p11----------------------------14p12p11----------------------------|
|----------14p12p10----------------------------14p12p10-------------------|
|-------------------14p12p10----------------------------14p12p10----------|
|----------------------------14p12p10----------------------------14p12p10-|
|
| Gtrs I, II
|  W
|-------------------------------------------------------------------------|
|-------------------------------------------------------------------------|
|-------------------------------------------------------------------------|
|-10----------------------------------------------------------------------|
|-------------------------------------------------------------------------|
|--8----------------------------------------------------------------------|


  G
   ~~
   W
|-------|
|-------|
|-12----|
|-------|
|-------|
|-------|
|
|  ~~
|  W
|-------|
|-------|
|-------|
|-14----|
|-------|
|-------|
|
|  W
|-------|
|-------|
|-12----|
|-------|
|-10----|
|-------|


  B
   |--3--|  |--3--|  |--3--|  |--3--|  |--3--|  |--3--|  |--3--|  |--3--|
   S  S  S  S  S  S  S  S  S  S  S  S  S  S  S  S  S  S  S  S  S  S  S  S
|-------------------------------------10h12p10----------------------------|
|----------------------------10h12h13----------13p12p10-------------------|
|--------------------9h11h12----------------------------12p11p=9----------|
|-----------9h10h12----------------------------------------------12p10p=9-|
|--9h10h12----------------------------------------------------------------|
|-------------------------------------------------------------------------|
|
|  |--3--|  |--3--|  |--3--|  |--3--|  |--3--|  |--3--|  |--3--|  |--3--|
|  S  S  S  S  S  S  S  S  S  S  S  S  S  S  S  S  S  S  S  S  S  S  S  S
|-------------------------------------------------------------------------|
|-------------------------------------12h13p12----------------------------|
|----------------------------11h12h14----------14p12p11-------------------|
|-------------------10h12h14----------------------------14p12p10----------|
|----------10h12h14----------------------------------------------14p12p10-|
|-10h12h14----------------------------------------------------------------|
|
|  W
|-------------------------------------------------------------------------|
|-------------------------------------------------------------------------|
|-------------------------------------------------------------------------|
|--9----------------------------------------------------------------------|
|-------------------------------------------------------------------------|
|--7----------------------------------------------------------------------|


  F#
               |--3--|
   Q.    S  S  Q  Q  Q
|----------------------|
|----------------------|
|-11----11h12-11--9-12-|
|----------------------|
|----------------------|
|----------------------|
|
|              |--3--|
|  Q.    S  S  Q  Q  Q
|----------------------|
|----------------------|
|----------------------|
|-12----12h14-12-10-14-|
|----------------------|
|----------------------|
|
|  W
|----------------------|
|----------------------|
|-11-------------------|
|----------------------|
|--9-------------------|
|----------------------|


  C                   G
   ~~~         ~~
   Q.    S  S  H       S  S  S S  S  S S  S  S S  S  S S  S  S  S
|-------------------|---------------------------------------------|
|-12----13-13-13----|------------------------------------------10-|
|-------------------|----------9-------9-11----9-11-12-9-11-12----|
|-------------------|--9-10-12---10-12------12--------------------|
|-------------------|---------------------------------------------|
|-------------------|---------------------------------------------|
|
|  ~~~         ~~
|  Q.    S  S  H       W
|-------------------|---------------------------------------------|
|-------------------|---------------------------------------------|
|-12----14-14-14----|---------------------------------------------|
|-------------------|---------------------------------------------|
|-------------------|---------------------------------------------|
|-------------------|---------------------------------------------|
|
|  W                   W
|-------------------|---------------------------------------------|
|-------------------|---------------------------------------------|
|-------------------|-12------------------------------------------|
|-10----------------|---------------------------------------------|
|-------------------|-10------------------------------------------|
|--8----------------|---------------------------------------------|


  B                                           F#
  Gtr III
   ~~    T                 T                        ~~      ~~
         |------6-------|  |------6-------|
   H     S  S  S  S  S  S  S  S  S  S  S  S    S S  Q  S S  Q   +Q
|-------14----------------14----------------|-------------------------|
|-12-------15p13p12h13h15----15p13p12h13h15-|-------------------------|
|-------------------------------------------|-12p9-11-----------------|
|-------------------------------------------|----------9p7-10--(10)\--|
|-------------------------------------------|-------------------------|
|-------------------------------------------|-------------------------|
|
| Gtrs I, II
|  W                                           W
|-------------------------------------------|-------------------------|
|-------------------------------------------|-------------------------|
|-------------------------------------------|-11----------------------|
|--9----------------------------------------|-------------------------|
|-------------------------------------------|--9----------------------|
|--7----------------------------------------|-------------------------|


  C               G                 B             F#
  Gtr III
                                                    ~~~
                            |-3-|   |-3-|
   E Q  E Q  Q     E Q  S S Q Q Q   Q Q Q H         W
|---------------|-----------------|-------------|--------|
|---------------|-----------------|-------------|--------|
|---------------|-------------4---|-------------|--------|
|--2-5--4-5--4--|--5-2--2h4h5---5-|-4-2-4-5-----|--------|
|---------------|-----------------|-------------|--/9----|
|---------------|-----------------|-------------|--------|
|
| Gtr IV
|                                                   ~~~
|  W               W                W               W
|---------------|-----------------|-------------|--------|
|---------------|-----------------|-------------|--------|
|---------------|-----------------|-------------|-/11----|
|---------------|-----------------|-------------|--------|
|---------------|-----------------|-------------|--------|
|---------------|-----------------|-------------|--------|
|
| Gtrs I, II
|  W               W                W               W
|---------------|-----------------|-------------|--------|
|---------------|-----------------|-------------|--------|
|---------------|-12--------------|-------------|--11----|
|-10------------|-----------------|-9-----------|--------|
|---------------|-10--------------|-------------|---9----|
|--8------------|-----------------|-7-----------|--------|


  C
  Gtr III
   S  S. S.  S  S  S  S  S  S  S  S  S  S  S  S
|-14h15-----15-14-12-10-12----------------------|
|--------------------------13-12-10-13-12-10----|
|--------------------------------------------12-|
|-----------------------------------------------|
|-----------------------------------------------|
|-----------------------------------------------|
|
| Gtrs I, II
|  W
|-----------------------------------------------|
|-----------------------------------------------|
|-----------------------------------------------|
|-10--------------------------------------------|
|-----------------------------------------------|
|--8--------------------------------------------|


  G
                                   ~
   S  S  S S  S S  S  S  S  S S  S Q
|-------------------------------------|
|-10----------------------------------|
|----12-11-9-11-9---------------------|
|-----------------12-10-12-10-9----9--|
|-------------------------------12----|
|-------------------------------------|
|
|  W
|-------------------------------------|
|-------------------------------------|
|-12----------------------------------|
|-------------------------------------|
|-10----------------------------------|
|-------------------------------------|


  B                  F#
           ~~
  S S  S S H.         S  S  E  S  S  E  S  S  E  +Q
|------------------|-----------------------------------|
|------------------|-13p12-13-12p10-12-10--------------|
|--------7h8-------|----------------------12-11-(11)\--|
|-7h9h10-----------|-----------------------------------|
|------------------|-----------------------------------|
|------------------|-----------------------------------|
|
| W                   W
|------------------|-----------------------------------|
|------------------|-----------------------------------|
|------------------|-11--------------------------------|
|-9----------------|-----------------------------------|
|------------------|--9--------------------------------|
|-7----------------|-----------------------------------|


 Bridge
  N.C.
  Gtrs III, IV
   H     H       +Q    Q   Q   Q     H     H       +W
|-------------|-------------------|-------------|---------|
|-------------|-------------------|-------------|---------|
|-------------|-------------------|-------------|---------|
|-------------|-------------------|-------------|---------|
|--9----10----|-(10)---9--11--10--|--9----10----|-(10)----|
|-------------|-------------------|-------------|---------|
|
| Gtr II
|  H     H       +Q    Q   Q   Q     H     H       +W
|-------------|-------------------|-------------|---------|
|-------------|-------------------|-------------|---------|
|-11----12----|-(12)--11--13--12--|-11----12----|-(12)----|
|-------------|-------------------|-------------|---------|
|-------------|-------------------|-------------|---------|
|-------------|-------------------|-------------|---------|


  N.C.
  Gtr III
                                                   |--3--|
   H     H       +Q    Q   Q   Q     H     H       Q  Q  Q  H
|-------------|-------------------|-------------|----------------|
|-------------|-------------------|-------------|----------------|
|-------------|-------------------|-------------|-11--8----------|
|-------------|-------------------|-------------|-------10--9----|
|--9----10----|-(10)---9--11--10--|--9----10----|----------------|
|-------------|-------------------|-------------|----------------|
|
| Gtr IV
|                                                  |--3--|
|  H     H       +Q    Q   Q   Q     H     H       Q  Q  Q  H
|-------------|-------------------|-------------|-14-11----------|
|-------------|-------------------|-------------|-------13-12----|
|-------------|-------------------|-------------|----------------|
|--9----10----|-(10)---9--11--10--|--9----10----|----------------|
|-------------|-------------------|-------------|----------------|
|-------------|-------------------|-------------|----------------|
|
| Gtr II
|                                                  |--3--|
|  H     H       +Q    Q   Q   Q     H     H       Q  Q  Q  H
|-------------|-------------------|-------------|-14-11----------|
|-------------|-------------------|-------------|-------13-12----|
|-11----12----|-(12)--11--13--12--|-11----12----|----------------|
|-------------|-------------------|-------------|----------------|
|-------------|-------------------|-------------|----------------|
|-------------|-------------------|-------------|----------------|


   Interlude
    F#               G
     Q  Q   Q   Q     Q   Q   E  S  S  S  S  S S
||-----------------|-----------------------------|
||o----------------|-----13--12-13p12p10---------|
||--11--9--11--12--|-12------------------12p11p9-|
||-----------------|-----------------------------|
||o----------------|-----------------------------|
||-----------------|-----------------------------|
|
|    Q  Q   Q   Q     Q   Q   Q        Q
||-----------------|-----------------------------|
||o----------------|-----13--12-------10---------|
||--11--9--11--12--|-12--------------------------|
||-----------------|-----------------------------|
||o----------------|-----------------------------|
||-----------------|-----------------------------|
|
|    <                <
|    W                W
||--14-------------|-15--------------------------|
||o----------------|-----------------------------|
||--11-------------|-12--------------------------|
||-----------------|-----------------------------|
||o----------------|-----------------------------|
||-----------------|-----------------------------|


  E          F# G    F#
   Q   Q  Q   E  E    Q   Q   Q  Q
|------------------|----------------|
|------------------|----------------|
|--9---9--9--11-12-|-11--11--12--9--|
|------------------|----------------|
|------------------|----------------|
|------------------|----------------|
|
|  Q   Q  Q   E  E    Q   Q   Q  Q
|------------------|----------------|
|------------------|----------------|
|--9---9--9--11-12-|-11--11--12--9--|
|------------------|----------------|
|------------------|----------------|
|------------------|----------------|
|
|  <          <  <    <
|  H.         E  E    W
|-12---------14h15-|-14-------------|
|------------------|----------------|
|--9---------11-12-|-11-------------|
|------------------|----------------|
|------------------|----------------|
|------------------|----------------|


  D                E                C#      D     C#
                                    ~~            ~
   Q  Q   Q   Q     Q   Q   Q  Q    H.       Q    W
|----------------|----------------|-------------|-------||
|------------10--|----------------|-------------|------o||
|--7--7--12------|--9--12--11--9--|-6--------7--|-6-----||
|----------------|----------------|-------------|-------||
|----------------|----------------|-------------|------o||
|----------------|----------------|-------------|-------||
|
|                                   ~~            ~
|  Q  Q   Q   Q     Q   Q   Q  Q    H.       Q    W
|----------------|----------------|-------------|-------||
|------------10--|----------------|-------------|------o||
|--7--7--12------|--9--12--11--9--|-6--------7--|-6-----||
|----------------|----------------|-------------|-------||
|----------------|----------------|-------------|------o||
|----------------|----------------|-------------|-------||
|
|  <                <               <        <    <
|  W                W               H.       Q    W
|-10-------------|-12-------------|-9-------10--|-9-----||
|----------------|----------------|-------------|------o||
|--7-------------|--9-------------|-6--------7--|-6-----||
|----------------|----------------|-------------|-------||
|----------------|----------------|-------------|------o||
|----------------|----------------|-------------|-------||


  H=H
  C#
   >
   ~~~~~~~~~~~~~~~~
  +W           +W
|------------|--------|
|------------|--------|
|-(6)--------|-(6)----|
|------------|--------|
|------------|--------|
|------------|--------|
|
|  >
|  ~~~~~~~~~~~~~~~~
| +W           +W
|------------|--------|
|------------|--------|
|-(6)--------|-(6)----|
|------------|--------|
|------------|--------|
|------------|--------|
|
|  >
| +W           +W
|-(9)--------|-(9)----|
|------------|--------|
|-(6)--------|-(6)----|
|------------|--------|
|------------|--------|
|------------|--------|


 Bassline
  Q=120
  Wx8
|--------|
|--------|
|--------|
|--------|


 Guitar Solo - Masvidal
  Q=125
              B5
  Gtrs I, III
   PM------|      PM------------|      PM----
   S  S  S  S  E  S  S  S  S  S  S  E  S  S
|-------------------------------------------|
|-------------------------------------------|
|-------------------------------------------|
|--------------4--------------------4-------|
|--2--2--2--2--2--2--2--2--2--2--2--2--2--2-|
|-------------------------------------------|
|
| Gtr IV
|  PM------|      PM------------|      PM----
|  S  S  S  S  E  S  S  S  S  S  S  E  S  S
|-------------------------------------------|
|-------------------------------------------|
|-------------------------------------------|
|-------------------------------------------|
|----------12-14----------12-14-15-14-12-14-|
|-12-14-15-------12-14-15-------------------|


  N.C.
 -------------------------------------------|
   S  S  S  S  S S S S  S  S  S  S  S  S  S  S
|----------------------------------------------|
|----------------------------------------------|
|----------------------------------------------|
|----------------------------------------------|
|--3--3--3--3--3-3-3-3--3--3--3--3--3--3--3--3-|
|----------------------------------------------|
|
|----|         ~~
|  S  S  S  S  Q        S  S  S  S  S  S  S  S
|----------------------------------------------|
|----------------------13p12----------12-13-12-|
|-------11-12-11-------------14-12-14----------|
|-12-14----------------------------------------|
|----------------------------------------------|
|----------------------------------------------|


  N.C.
   PM---------------------------------------
   S  S  S S  S  S  S S  S  S  S S S S S S
|------------------------------------------|
|------------------------------------------|
|------------------------------------------|
|------------------------------------------|
|--0--0--0-0--0--0--0-0--0--0--0-0-0-0-0-0-|
|------------------------------------------|
|
|  S  S  E    S  S  E    S  S  E   E   E
|-15-12------12----------------------------|
|-------15------15-12---13-12--------------|
|-----------------------------14---9---7---|
|------------------------------------------|
|------------------------------------------|
|------------------------------------------|


 ------------------------------------|
  S S S S S S  S  S S S S S S S  S   S
|--------------------------------------|
|--------------------------------------|
|--------------------------------------|
|--------------------------------------|
|-0-0-0-0-0-0--0--0-0-0-0-0-0-0--0---0-|
|--------------------------------------|
|
|              ~~~
| E   E   E    H                +E
|--------------------------------------|
|--------------------------------------|
|-9---7--------------------------------|
|---------7---[9]---------------(9)\---|
|--------------------------------------|
|--------------------------------------|


  N.C.
   PM---------------------------------------
   S S  S S  S S  S S S S  S  S  S  S  S S
|------------------------------------------|
|------------------------------------------|
|------------------------------------------|
|------------------------------------------|
|--2-2--2-2--2-2--2-2-2-2--2--2--2--2--2-2-|
|------------------------------------------|
|
|  E    E    E    Q        S  S  S  E.
|------------------------------------------|
|-------------------------------12h15------|
|-----------12------------12h14------------|
|-14---12--------14------------------------|
|------------------------------------------|
|------------------------------------------|


 ------------------------------------------|
   S  S  S  S  S  S  S  S  S S S S  S  S S S
|--------------------------------------------|
|--------------------------------------------|
|--------------------------------------------|
|--------------------------------------------|
|--3--3--3--3--3--3--3--3--3-3-3-3--3--3-3-3-|
|--------------------------------------------|
|
|  S  S  S  S  S  S  S  S  Q        Q
|--------------------------------------------|
|-15p12--------------------------------------|
|-------14p12--------------------------------|
|-------------14p12--------------------------|
|-------------------14p12-14-------12\-------|
|--------------------------------------------|


  N.C.
   PM---------------------------------------------
   S  S  S  S  S S  S  S  S  S  S  S  S  S  S  S
|------------------------------------------------|
|------------------------------------------------|
|------------------------------------------------|
|------------------------------------------------|
|--0--0--0--0--0-0--0--0--0--0--0--0--0--0--0--0-|
|------------------------------------------------|
|
|  S  S  S  S  E    S  S  S  S  S  S  S  S  S  S
|------------------------------------------------|
|------------------------------------15p12-------|
|-------------12---------------12h14-------14p12-|
|-------12h14------------12h14-------------------|
|-12h14------------12h14-------------------------|
|------------------------------------------------|


 ------------------------------------|
   S S  S S  S S  S S  S S S S S S S S
|--------------------------------------|
|--------------------------------------|
|--------------------------------------|
|--------------------------------------|
|--5-5--5-5--5-5--5-5--5-5-5-5-5-5-5-5-|
|--------------------------------------|
|
|                      ~~
|  E    E    E    E    H
|--------------------------------------|
|----------------12--------------------|
|---------------------14---------------|
|-14---12---14-------------------------|
|--------------------------------------|
|--------------------------------------|


  N.C.
   PM----------------------------------------------
   S  S  S  S  S  S  S  S  S  S  S  S  S  S  S  S
|-------------------------------------------------|
|-------------------------------------------------|
|-------------------------------------------------|
|-------------------------------------------------|
|--2--2--2--2--2--2--2--2--2--2--2--2--2--2--2--2-|
|-------------------------------------------------|
|
|  S  S  S  S  S  S  S  S  S  S  S  S  S  S  S  S
|-------------15p12-------15p12-------------------|
|-------12h15-------15p12-------15p12-15p12-------|
|-12h14-------------------------------------14p12-|
|-------------------------------------------------|
|-------------------------------------------------|
|-------------------------------------------------|


 ----------------------------------------------|
   S  S  S  S  S  S  S  S  S  S  S  S  S  S  S  S
|-------------------------------------------------|
|-------------------------------------------------|
|-------------------------------------------------|
|-------------------------------------------------|
|--3--3--3--3--3--3--3--3--3--3--3--3--3--3--3--3-|
|-------------------------------------------------|
|
|  S  S  S  S  S  S  S  S  S  S  S  S  S  S  S  S
|-------------15p12-------15p12-15p12-------------|
|-------15p12-------15p12-------------15p12-15p12-|
|-14p12-------------------------------------------|
|-------------------------------------------------|
|-------------------------------------------------|
|-------------------------------------------------|


  N.C.
   PM----------------------------------------------
   S  S  S  S  S  S  S  S  S  S  S  S  S  S  S  S
|-------------------------------------------------|
|-------------------------------------------------|
|-------------------------------------------------|
|-------------------------------------------------|
|--0--0--0--0--0--0--0--0--0--0--0--0--0--0--0--0-|
|-------------------------------------------------|
|
|  PM------------------------------------------|
|  S  S  S  S  S  S  S  S  S  S  S  S  S  S  S  S
|-------------------------------------------------|
|-------------------------------------------12-15-|
|-------------------------------12-14-12-14-------|
|-------------------12-14-12-14-------------------|
|-------12-14-12-14-------------------------------|
|-12-15-------------------------------------------|


 ------------------------------------------------|
   S     S S S  S     S S S  S  S  S  S  S  S  S S
|--------------------------------------------------|
|--------------------------------------------------|
|--------------------------------------------------|
|--------------------------------------------------|
|--0-----0-0-0--0-----0-0-0--0--0--0--0--0--0--0-0-|
|--------------------------------------------------|
|
|                                              ~~
|  Q            Q            S  S  S  S  S  S  E
|-15b17========17b20========17-15-14-12-14-12------|
|---------------------------------------------15---|
|--------------------------------------------------|
|--------------------------------------------------|
|--------------------------------------------------|
|--------------------------------------------------|


  N.C.
   PM--------------------------------------------------------------------------------|
   S    S     S    S     S    S     S    S     S    S     S    S     S    S     S    S
|------------------------------------------------------------------------------------------|
|------------------------------------------------------------------------------------------|
|------------------------------------------------------------------------------------------|
|------------------------------------------------------------------------------------------|
|--2----2-----2----2-----2----2-----2----2-----2----2-----2----2-----2----2-----2----2-----|
|------------------------------------------------------------------------------------------|
|
|  |---3---|  |---3---|  |---3---|  |---3---|  |---3---|  |---3---|  |---3---|  |---3---|
|  S  S    S  S  S    S  S  S    S  S  S    S  S  S    S  S  S    S  S  S    S  S  S    S
|-15p14p==12------------15p14p==12------------15p14p==12-----------------------------------|
|------------15p13p==12------------15p13p==12------------15p13p==12-15p13p==12-------------|
|------------------------------------------------------------------------------14p12p==11--|
|------------------------------------------------------------------------------------------|
|------------------------------------------------------------------------------------------|
|------------------------------------------------------------------------------------------|


  N.C.
   PM--------------------------------------------------------------------------------|
   S    S     S    S     S    S     S    S     S    S     S    S     S    S     S    S
|------------------------------------------------------------------------------------------|
|------------------------------------------------------------------------------------------|
|------------------------------------------------------------------------------------------|
|------------------------------------------------------------------------------------------|
|--3----3-----3----3-----3----3-----3----3-----3----3-----3----3-----3----3-----3----3-----|
|------------------------------------------------------------------------------------------|
|
|  |---3---|  |---3---|  |---3---|  |---3---|  |---3---|  |---3---|  |---3---|  |---3---|
|  S  S    S  S  S    S  S  S    S  S  S    S  S  S    S  S  S    S  S  S    S  S  S    S
|-15p14p==12-------------------------------------------------------------------------------|
|------------15p13p==12--------------------------------------------------------------------|
|-----------------------14p12p==11------------14p12p==11-----------------------------------|
|----------------------------------14p12p==10------------14p12p==10------------------------|
|-------------------------------------------------------------------14p12p==10-------------|
|------------------------------------------------------------------------------14p12p==10--|


  N.C.
   PM-------------------------------------------
   S  S  S  S  S  S  S  S  S  S  S  S  S S S S
|----------------------------------------------|
|----------------------------------------------|
|----------------------------------------------|
|----------------------------------------------|
|--0--0--0--0--0--0--0--0--0--0--0--0--0-0-0-0-|
|----------------------------------------------|
|
|  PM------------------|               ~~
|  S  S  S  S  S  S  S  S  S  S  S  S  Q
|-------------------------17p15----------------|
|-------------------------------17p15-13-------|
|-------------------12h14----------------------|
|-------------12h14----------------------------|
|-------12h14----------------------------------|
|-12h15----------------------------------------|
|
| Gtr IV
|  PM------------------|
|  S  S  S  S  S  S  S  S  H
|----------------------------------------------|
|----------------------------------------------|
|--------------------9h11----------------------|
|--------------9h10----------------------------|
|--------9h10----------------------------------|
|-10h12----------------------------------------|


 ----------------------------------------------|
   S  S  S  S  S  S  S  S  S  S  S  S   S  S S S
|------------------------------------------------|
|------------------------------------------------|
|------------------------------------------------|
|------------------------------------------------|
|--5--5--5--5--5--5--5--5--5--5--5--5---5--5-5-5-|
|------------------------------------------------|
|
|  PM------------------------------|    ~~~~
|  S  S  S  S  S  S  S  S  S  S  S  S   Q
|------------------------------------------------|
|------------------------------------------------|
|------------------------------------------------|
|-14p12-------------------14p12-------[14]-------|
|-------14p12-------14p12-------14p12------------|
|-------------15p12------------------------------|
|
|  W
|------------------------------------------------|
|------------------------------------------------|
|------------------------------------------------|
|------------------------------------------------|
|------------------------------------------------|
|------------------------------------------------|


   Outro
    Q=160
    N.C.
    Gtrs III, IV
    PM--------------------------------------------------------------|
    S S S S S S S S S S S S S S S S   S S S S S S S S S S S S S S S S
||----------------------------------|----------------------------------|
||o---------------------------------|----------------------------------|
||----------------------------------|----------------------------------|
||----------------------------------|----------------------------------|
||o---------------------------------|-----------------1-1-1-1-1-1-1-1--|
||--3-3-3-3-3-3-3-3-2-2-2-2-2-2-2-2-|-3-3-3-3-3-3-3-3------------------|


  N.C.
  PM--------------------------------------------------------------|
  S S S S S S S S S S S S S S S S   S S S S S S S S S S S S S S S S  6x
|---------------------------------|----------------------------------||
|---------------------------------|---------------------------------o||
|---------------------------------|----------------------------------||
|---------------------------------|----------------------------------||
|---------------------------------|---------------------------------o||
|-3-3-3-3-3-3-3-3-2-2-2-2-2-2-2-2-|-3-3-3-3-3-3-3-3-1-1-1-1-1-1-1-1--||



Duration Legend
---------------
W - whole; H - half; Q - quarter; E - 8th; S - 16th; T - 32nd; X - 64th; a - acciaccatura
+ - note tied to previous; . - note dotted; .. - note double dotted
Uncapitalized letters represent notes that are staccato (1/2 duration)
Irregular groupings are notated above the duration line
Duration letters will always appear directly above the note/fret number it represents the
duration for.  Duration letters with no fret number below them represent rests.  Multi-
bar rests are notated in the form Wxn, where n is the number of bars to rest for.  Low
melody durations appear below the staff

Tablature Legend
----------------
 h   - hammer-on
 p   - pull-off
 b   - bend
 pb  - pre-bend
 r   - bend release (if no number after the r, then release immediately)
 /\  - slide into or out of (from/to "nowhere")
 s   - legato slide
 S   - shift slide
 - natural harmonic
[n]  - artificial harmonic
n(n) - tapped harmonic
 ~   - vibrato
 tr  - trill
 T   - tap
 TP  - trem. picking
 PM  - palm muting
\n/  - tremolo bar dip; n = amount to dip
 \n  - tremolo bar down
 n/  - tremolo bar up
/n\  - tremolo bar inverted dip
 =   - hold bend; also acts as connecting device for hammers/pulls
 <> - volume swell (louder/softer)
 x   - on rhythm slash represents muted slash
 o   - on rhythm slash represents single note slash

Misc Legend
-----------
 |  - bar
||  - double bar
||o - repeat start
o|| - repeat end
*|  - double bar (ending)
 :  - bar (freetime)
 $  - Segno
 &  - Coda
Tempo markers -  = BPM(8/16=s8/s16), where s8 = swing 8ths, s16 = swing 16ths


            
            
Suggest correction
Creating personal tab
Creating personal tab
You can edit any tab online and save it as your Personal.

You can edit, replace or remove any tab part or add personal notes – all changes will be seen only by you.

Personal tabs can be accessed anytime from any device, even offline.
Learn more »
Give kudos to tab author, rate the tab!
1 2 3 4 5
comments
print report bad tab
guest
You may want to rate the tab now too:
select rating
Wanna post a correction for this tab? Suggest correction