Oops, an error
Loading. Please wait.
We have an official Crystal Mountain tab made by UG professional guitarists. Check out the tab »
×
by Death
2,367 views 33 this week
no commentswrite comment
1 2 3 4 5
2 more votes to show rating
add to favorites
×
Save as Personal and add changes to this tab that will be seen only by you. Learn more ›
×
You can save this tab as Personal to edit and correct it or add notes. All changes will be seen only by you. Learn more »
launch autoscroll
font size
0
reset
how to read this tab
guitar tuner
backing track
0:00
0:00
edit
Autoscroll
slow
fast
+/-
esc
set tempo
stop
Author
Tabbers playing skills
intermediate ++
                   CRYSTAL MOUNTAIN ( ACOUSTIC ARRANGEMENT )
                              As recorded by Death


          E5                   Eb5                  D5                   F5
      x 7 9 x x x          x 6 8 x x x          x 5 7 x x x         x 8 10 10 x x

          A5                   G#5                  B5                   C#5
      x 0 2 2 x x          4 6 6 x x x          x 2 4 4 x x          x 4 6 6 x x

 Intro
  Fast Q=180
  $
  Em             Ebm            Em             (C5)(B5)(F5)(G5)
 4/4
  Gtrs I, II
|-------7---7--|-------6---6--|-------7---7--|------------------|
|----^8--------|----^7--------|----^8--------|-----------0------|
|----^9--------|----^8--------|----^9--------|---------------0--|
|----^9--------|----^8--------|----^9--------|---5---4----------|
|----^7--------|----^6--------|----^7--------|-3---2------------|
|-0------------|-0------------|-0------------|---------1---3----|


  Em             Ebm            E5                  D5
                                Gtr II
                                 |                  |
                                 /                  /

                                Gtr I
|-------7---7--|-------6---6--|-------------------|------------------|
|----^8--------|----^7--------|-------------------|------------------|
|----^9--------|----^8--------|-10-9-7------------|------------------|
|----^9--------|----^8--------|--------10-9-7-6---|---------6-7-9-10-|
|----^7--------|----^6--------|-----------------8-|-7-5-7-8----------|
|-0------------|-0------------|-------------------|------------------|


   Verse
    Em             Ebm            Em             (C5)(B5)(F5)(G5)
    Gtrs I, II
||--------7---7--|-------6---6--|-------7---7--|-------------------||
||o----^8--------|----^7--------|----^8--------|-----------0------o||
||-----^9--------|----^8--------|----^9--------|---------------0---||
||-----^9--------|----^8--------|----^9--------|---5---4-----------||
||o----^7--------|----^6--------|----^7--------|-3---2------------o||
||--0------------|-0------------|-0------------|---------1---3-----||


    (Am)                         D5/G         C5/F
    Gtr II
||------0------|---------------|------------|------------------||
||o---------0--|---------------|------------|-----------------o||
||-------------|-5-------------|------------|------------------||
||-------------|---------------|------------|------------------||
||o-0----------|---------------|-----5---7--|-----3-----5-----o||
||-------------|---------------|-3----------|-1----------------||
|
|   Gtr I
||------0------|---------------|------------|------------------||
||o---------0--|---------------|------------|-----------------o||
||-------------|-5---4h5-7-5p4-|------------|------------------||
||-------------|---------------|------------|------------------||
||o-0----------|---------------|-----5---7--|-----3-5-3h5p3-2-o||
||-------------|---------------|-3----------|-1----------------||


            G5                            C#5              G#5     C5
||------------------|-------------------|----------------|-------------------||
||o-----------------|-------------------|----------------|------------------o||
||------------------|-------------------|-6--------------|---------5---------||
||--5-6--8--5---(5)-|-(5)---------------|-6--------------|-6-------5---------||
||o---------5---(5)-|-(5)---------------|-4--------------|-6-------3--------o||
||------------------|-------------------|----------------|-4-----------------||
|
||------------------|-------------------|-------4--------|-------------------||
||o-----------------|-------4-----3-----|----------5---5-|---------------4--o||
||---------------0--|--3------3-----3---|-----6------6---|-------------5-----||
||------------6-----|-----5-----5-----3-|---6------------|-----0-----5-------||
||o-5-6--8--5----5--|-------------------|-4--------------|---6---6-3--------o||
||------------------|-------------------|----------------|-4-----------------||


    (Am)                         D5/G         C5/F
||------0------|---------------|------------|------------------||
||o---------0--|---------------|------------|-----------------o||
||-------------|-5-------------|------------|------------------||
||-------------|---------------|------------|------------------||
||o-0----------|---------------|-----5---7--|-----3-----5-----o||
||-------------|---------------|-3----------|-1----------------||
|
||------0------|---------------|------------|------------------||
||o---------0--|---------------|------------|-----------------o||
||-------------|-5---4h5-7-5p4-|------------|------------------||
||-------------|---------------|------------|------------------||
||o-0----------|---------------|-----5---7--|-----3-5-3h5p3-2-o||
||-------------|---------------|-3----------|-1----------------||


   Chorus
    N.C.
    Gtr I
||--------------------|-----------------------|
||o-------------------|-----------10----10-12-|
||---------7-9----7---|----7-9-10----10-------|
||--7-9-10-----10---9-|-10--------------------|
||o-------------------|-----------------------|
||--------------------|-----------------------|
|
|   Gtr II
||--------------------|-----------------------|
||o-------------------|-----------------------|
||--------------------|-----------------------|
||--------------------|--8--------------------|
||o----------8--------|------------5----------|
||--5-----------------|-----------------------|


|-----------------------|--------------------|
|-13-12-10----10--------|--------------------|
|----------10----10-9-7-|-9-10-9-7------7----|
|-----------------------|----------9-10---9--|
|-----------------------|--------------------|
|-----------------------|--------------------|
|
|-----------------------|--------------------|
|-----------------------|--------------------|
|--------------5--------|--------------------|
|-----------------------|----------5---------|
|--7--------------------|--------------------|
|-----------------------|-8------------------|


                                                                    To Coda
  N.C.
  Gtrs I, II
                                   ~                                     ~
                                                                             3x
|------------------|------------------|------------------|-------------------||
|------------------|------------------|------------------|------------------o||
|------------------|------------------|------------------|-------------------||
|-10-------9-------|-10-------10---9--|-10-------9-------|-10-------10---9---||
|----7-------7-----|----7--------7----|----7-------7-----|----7--------7----o||
|------0-0-----0-0-|------0-0---------|------0-0-----0-0-|------0-0----------||


 Breakdown
  E5
  Gtr II
  |          |                |
  /          /                /

  Gtr I
                                  ~~
|----------|---------------|-----------|
|-------5--|-6--/9--10--9--|-----------|
|----------|---------------|-10--10----|
|----------|---------------|-----------|
|----------|---------------|-----------|
|----------|---------------|-----------|


  F5
  |             |                   |
  /             /                   /

                                             ~
|-------------|-8----------------|---------------|
|-----9h10-9--|----10--9--9h12p9-|---------------|
|-------------|------------------|-10--9--8--9---|
|-------------|------------------|---------------|
|-------------|------------------|---------------|
|-------------|------------------|---------------|


   Bridge
    N.C.    E5    N.C.
   4/4
    Gtrs I, II
||--------------|-------------|--------------|
||o-------------|-------------|--------------|
||----------9-9-|-------------|--------------|
||----------9-9-|-------------|--------------|
||o---------7-7-|---------5---|-8---7--0-0-0-|
||--0-0-0-0-----|-0-0-0-0---6-|---5----------|


                           6/4
|-------------------------|------------------------||
|-------------------------|-----------------------o||
|-------------------------|------------------------||
|-------------------------|------------------------||
|-------------------------|---------5---7----(7)--o||
|-0-0-0-0-0-0-0-0-0-0-0-0-|-0-0-0-0---5------------||


   Interlude
    A5
   4/4
    Gtr II
    |                    |
    /                    /

    Gtr I
||---------------------|--------------------|
||o---0----0----0----0-|---0----0----0----0-|
||------11---12---11---|-9------------------|
||--9------------------|-----12---11---12---|
||o--------------------|--------------------|
||---------------------|--------------------|


  |                    |
  /                    /

|--------------------|--------------------|
|---0----0----0----0-|---0----0----0----0-|
|-----11---12---11---|-9------------------|
|-9------------------|-----12---11---12---|
|--------------------|--------------------|
|--------------------|--------------------|


  G#5
  |                    |
  /                    /

|--------------------|--------------------|
|---0----0----0----0-|---0----0----0----0-|
|-----11---12---11---|-9------------------|
|-9------------------|-----12---11---12---|
|--------------------|--------------------|
|--------------------|--------------------|


  Eb5
  |                    |
  /                    /

|--------------------|---------------------||
|---0----0----0----0-|---0----0----0----0-o||
|-----11---12---11---|-9-------------------||
|-9------------------|-----12---11---12----||
|--------------------|--------------------o||
|--------------------|---------------------||


 Guitar Solo
  G#5          Eb5        A5                   E5
  Gtr II
  |            |          |                    |
  /            /          /                    /

  Gtr I
  ~            ~                                               ~~~~~~~
|------------|----------|--------------------|-9h11p9----9--------------|
|------------|----------|------------9-11-12-|--------12---12-11-(11)---|
|------------|-6--------|--------8-9---------|--------------------------|
|-6------8-9-|----------|-8-9-11-------------|--------------------------|
|------------|----------|--------------------|--------------------------|
|------------|----------|--------------------|--------------------------|


  B5                     E5
     |                   |
     /                   /

                                  <
|-9h11-9-7-------------|-----------------------------|
|----------12-11-9-----|-7---7-9-11p9h12p9h11p9h12p9-|
|------------------9p8-|---8-------------------------|
|----------------------|-----------------------------|
|----------------------|-----------------------------|
|----------------------|-----------------------------|


  Eb5                                        Eb5
  |                                          |
  /                                          /

                                             ~
|-9-11-12-11-9-------9---------------------|------|
|--------------11-12---11-9----------------|------|
|---------------------------11-9-8---------|------|
|----------------------------------11-9----|-8----|
|---------------------------------------11-|------|
|------------------------------------------|------|


  C#5        Eb5         A5          E5
  |           |           |           |
  /           /           /           /

  TP          TP          TP                                  ~~~~~~~
|----------|-----------|-----------|-14-12-11-------------11-----------|
|-9--------|-11--------|-12--------|----------14-11-12-14--------------|
|----------|-----------|-----------|-------------------------11---9p8--|
|----------|-----------|-----------|-----------------------------------|
|----------|-----------|-----------|-----------------------------------|
|----------|-----------|-----------|-----------------------------------|


                                       D.S. al Coda
  B5              E5         Eb5                 Eb5
   |              |          |                   |
   /              /          /                   /

   ~~             ~                              ~
|---------------|----------|-------------------|-------|
|---------(2)s7-|-7--------|-4-5-4-2h4p2---2---|-------|
|---------------|----------|-------------4---4-|-3-----|
|-11------------|----------|-------------------|-------|
|---------------|----------|-------------------|-------|
|---------------|----------|-------------------|-------|


 Outro Solos
  &
  N.C.
  Gtr I
|-------------------|-----------------------|
|-------------------|-----------10----10-12-|
|--------7-9----7---|----7-9-10----10-------|
|-7-9-10-----10---9-|-10--------------------|
|-------------------|-----------------------|
|-------------------|-----------------------|
|
| Gtr II
|-------------------|-----------------------|
|-------------------|-----------------------|
|-------------------|-----------------------|
|-------------------|--8--------------------|
|----------8--------|------------5----------|
|-5-----------------|-----------------------|


|-----------------------|-------------------|
|-13-12-10----10--------|-------------------|
|----------10----10-9-7-|-9-10-9-7------7---|
|-----------------------|----------9-10---9-|
|-----------------------|-------------------|
|-----------------------|-------------------|
|
|-----------------------|-------------------|
|-----------------------|-------------------|
|--------------5--------|-------------------|
|-----------------------|----------5--------|
|--7--------------------|-------------------|
|-----------------------|-8-----------------|


  N.C.
                                ~       ~~
|--------------------------|---------------------|
|--5h6p5-(5)---5h8p5-(5)---|---------------------|
|------------7-------------|---------------------|
|------------------------7-|--9-7---10--7---9-10-|
|--------------------------|---------------------|
|--------------------------|---------------------|
|
|                                           ~
|--------------------------|---------------------|
|--------------------------|---------------------|
|--------------------------|---------------------|
|-10-----------9-----------|-10--------10---9----|
|------7-----------7-------|----7---------7------|
|---------0--0--------0--0-|------0--0-----------|


   ~~        ~~
|---------------------|-10--------------------------------|
|------------------10-|----13p12p10---------12-10-13-12\--|
|--7---10p9h12--------|-------------12---12---------------|
|---------------------|----------------9------------------|
|---------------------|-----------------------------------|
|---------------------|-----------------------------------|
|
|                                                  ~~
|---------------------|-----------------------------------|
|---------------------|-----------------------------------|
|---------------------|-----------------------------------|
|-10---------9--------|-10------------------10-----9------|
|----7---------7------|--------7----------------7---------|
|-------0-0------0--0-|--------------0-0------------------|


  N.C.
|-------------------|-----------------------|
|-------------------|-----------10----10-12-|
|--------7-9----7---|----7-9-10----10-------|
|-7-9-10-----10---9-|-10--------------------|
|-------------------|-----------------------|
|-------------------|-----------------------|
|
|-------------------|-----------------------|
|-------------------|-----------------------|
|-------------------|-----------------------|
|-------------------|--8--------------------|
|----------8--------|------------5----------|
|-5-----------------|-----------------------|


|-----------------------|-------------------|
|-13-12-10----10--------|-------------------|
|----------10----10-9-7-|-9-10-9-7------7---|
|-----------------------|----------9-10---9-|
|-----------------------|-------------------|
|-----------------------|-------------------|
|
|-----------------------|-------------------|
|-----------------------|-------------------|
|--------------5--------|-------------------|
|-----------------------|----------5--------|
|--7--------------------|-------------------|
|-----------------------|-8-----------------|


  N.C.
      ~~                                        ~~
|-------------------------|---------------------------8-|
|-12-13-------12h13p12-10-|--8h10p8p7-------------------|
|-------------------------|-----------9p7----7h=9-------|
|-------------------------|---------------10------------|
|-------------------------|-----------------------------|
|-------------------------|-----------------------------|
|
|                                                   ~
|-------------------------|-----------------------------|
|-------------------------|-----------------------------|
|-------------------------|-----------------------------|
|-10--------9-------------|-10-----------------10---9---|
|-----7--------7----------|-------7---------------7-----|
|-------0-0----------0--0-|-----------0----0------------|


                                                       ~~
|-10h12-----------------------------|-----------------------|
|---------12-(12)---13p12p10--------|-10-----------10-12----|
|----------------------------<12>---|----12---11----9-11----|
|-----------------------------------|-----------------------|
|-----------------------------------|-----------------------|
|-----------------------------------|-----------------------|
|
|                                                        ~
|-----------------------------------|-----------------------|
|-----------------------------------|-----------------------|
|-----------------------------------|-----------------------|
|-10-----------------9--------------|-10-----------10----9--|
|-------7------------------7--------|-----7------------7----|
|--------------0--0------------0--0-|-------0----0----------|


  N.C.
|-------------------|-----------------------|
|-------------------|-----------10----10-12-|
|--------7-9----7---|----7-9-10----10-------|
|-7-9-10-----10---9-|-10--------------------|
|-------------------|-----------------------|
|-------------------|-----------------------|
|
|-------------------|-----------------------|
|-------------------|-----------------------|
|-------------------|-----------------------|
|-------------------|--8--------------------|
|----------8--------|------------5----------|
|-5-----------------|-----------------------|


|-----------------------|-------------------|
|-13-12-10----10--------|-------------------|
|----------10----10-9-7-|-9-10-9-7------7---|
|-----------------------|----------9-10---9-|
|-----------------------|-------------------|
|-----------------------|-------------------|
|
|-----------------------|-------------------|
|-----------------------|-------------------|
|--------------5--------|-------------------|
|-----------------------|----------5--------|
|--7--------------------|-------------------|
|-----------------------|-8-----------------|


  N.C.
|------------5-------|----------------------------|
|--------------------|----------------------------|
|--7p5-4-------5-4-5-|---------------7-----7-9b10r|
|--------------------|-5s=7---5-7------7----------|
|--------------------|----------------------------|
|--------------------|----------------------------|
|
|                                        ~
|--------------------|----------------------------|
|--------------------|----------------------------|
|--------------------|----------------------------|
|-10---------9-------|---10-------10-----9--------|
|------7-------7-----|------7--------7------------|
|--------0-0-----0-0-|--------0-0-----------------|


         ~                          ~~
|------------x-12---|--8----------------|
|------------x-10---|--6---0-1--3-5-3\--|
|--9---7-9---x--9---|--5---0-2--4-5-4\--|
|-------------------|-------------------|
|-------------------|-------------------|
|-------------------|-------------------|
|
|                                   ~~
|-------------------|-------------------|
|-------------------|-------------------|
|-------------------|-------------------|
|-10-------9--------|-10-------10---9---|
|----7-------7------|----7--------7-----|
|------0-0------0-0-|------0-0----------|


  N.C.
|-------------------|-----------------------|
|-------------------|-----------10----10-12-|
|--------7-9----7---|----7-9-10----10-------|
|-7-9-10-----10---9-|-10--------------------|
|-------------------|-----------------------|
|-------------------|-----------------------|
|
|-------------------|-----------------------|
|-------------------|-----------------------|
|-------------------|-----------------------|
|-------------------|--8--------------------|
|----------8--------|------------5----------|
|-5-----------------|-----------------------|


|-----------------------|-------------------|
|-13-12-10----10--------|-------------------|
|----------10----10-9-7-|-9-10-9-7------7---|
|-----------------------|----------9-10---9-|
|-----------------------|-------------------|
|-----------------------|-------------------|
|
|-----------------------|-------------------|
|-----------------------|-------------------|
|--------------5--------|-------------------|
|-----------------------|----------5--------|
|--7--------------------|-------------------|
|-----------------------|-8-----------------|


  N.C.
   <
                           TP
|-12-12-12-12-12-12-12-12-12-------|-10p8p0-7h10p0-10p8p=0-7h10p0-10p8-10p7-|
|----------------------------------|----------------------------------------|
|----------------------------------|----------------------------------------|
|----------------------------------|----------------------------------------|
|----------------------------------|----------------------------------------|
|----------------------------------|----------------------------------------|
|
|                                                                  ~~~
|----------------------------------|----------------------------------------|
|----------------------------------|----------------------------------------|
|----------------------------------|----------------------------------------|
|-10-----------------------9-------|-10-----------------10---------9--------|
|--------7-------------------7-----|------7-------------------7-------------|
|--------------0-----0---------0-0-|-----------0----0-----------------------|


     TP      TP  TP                  ~~
|-8s10-------8---7---|---------------------|
|--------------------|---------------------|
|--------------------|--5-4-2--------------|
|--------------------|--------5--3---------|
|--------------------|-------------5-2\----|
|--------------------|---------------------|
|
|                                    ~~
|--------------------|---------------------|
|--------------------|---------------------|
|--------------------|---------------------|
|---10-------9-------|-10-------10---9\----|
|------7-------7-----|----7--------7-------|
|--------0-0-----0-0-|------0-0------------|


  H.=H
  N.C.
|-------------------|-----------------------|
|-------------------|-----------10----10-12-|
|--------7-9----7---|----7-9-10----10-------|
|-7-9-10-----10---9-|-10--------------------|
|-------------------|-----------------------|
|-------------------|-----------------------|
|
|-------------------|-----------------------|
|-------------------|-----------------------|
|-------------------|-----------------------|
|-------------------|--8--------------------|
|----------8--------|------------5----------|
|-5-----------------|-----------------------|


                                             The End
                                                         Em
                                             3/4        4/4
                                          ~~~~~~~~
|-----------------------|-------------------|----------|-^--7-----*|
|-13-12-10----10--------|-------------------|----------|-^--8-----*|
|----------10----10-9-7-|-9-10-9-7------7---|----------|-^--9-----*|
|-----------------------|----------9-10---9-|-(9)------|-^--9-----*|
|-----------------------|-------------------|----------|-^--7-----*|
|-----------------------|-------------------|----------|----------*|
|
|                                              ~~~
|-----------------------|-------------------|----------|-^<12>----*|
|-----------------------|-------------------|----------|-^<12>----*|
|--------------5--------|-------------------|----------|-^<12>----*|
|-----------------------|----------5--------|-(5)------|----------*|
|--7--------------------|-------------------|----------|----------*|
|-----------------------|-8-----------------|----------|----------*|

            
            
Suggest correction
Creating personal tab
Creating personal tab
You can edit any tab online and save it as your Personal.

You can edit, replace or remove any tab part or add personal notes – all changes will be seen only by you.

Personal tabs can be accessed anytime from any device, even offline.
Learn more »
Give kudos to tab author, rate the tab!
1 2 3 4 5
comments
print report bad tab
guest
You may want to rate the tab now too:
select rating
Wanna post a correction for this tab? Suggest correction