Oops, an error
Loading. Please wait.

Destiny tab

version 2
version 2

Whole song

Interactive

by Death
3,369 views 1 this week
no commentswrite comment
1 2 3 4 5
2 more votes to show rating
add to favorites
×
Save as Personal and add changes to this tab that will be seen only by you. Learn more ›
×
You can save this tab as Personal to edit and correct it or add notes. All changes will be seen only by you. Learn more »
launch autoscroll
font size
0
reset
how to read this tab
guitar tuner
backing track
0:00
0:00
edit
Autoscroll
slow
fast
+/-
esc
set tempo
stop
#----------------------------------PLEASE NOTE---------------------------------#
#This file is the author's own work and represents their interpretation of the #
#song. You may only use this file for private study, scholarship, or research. #
#------------------------------------------------------------------------------#



Transcribed by Bongzilla619

        



Gtr I (D G C F A D) - 'acoustic rhythm'
Gtr II (D G C F A D) - 'acoustic lead'
Gtr III (D G C F A D) - 'dist rhythm 1'
Gtr IV (D G C F A D) - 'dist rhythm 2'

  Q=102
 4/4                                                   2/4
  Gtr I
  E E E E E E E E   E E E E E E E E   E E E E E E E E   E E E E
|-----2-3-2-------|-2-3-2-----------|---3-----------3-|---------|
|-----------------|-----------------|-3---3-------3---|-3-------|
|---4-------4---4-|-------4---4---5-|-------5---5-----|---5---5-|
|-2-----------2---|---------2---3---|---------3-------|-----3---|
|-----------------|-----------------|-----------------|---------|
|-----------------|-----------------|-----------------|---------|


 4/4                                                         2/4
  E  E E E E E E E   E E E E E  E E E   E  E E  E  E E  E E     E  E E   E
|------2-3-2-------|-2-3-2------------|----3--------------3-|----------------|
|------------------|------------------|-3----3----------3---|---3------------|
|----4-------4---4-|-------4----4---5-|---------5----5------|------5-----5---|
|-2------------2---|---------2----3---|------------3--------|--------3-------|
|------------------|------------------|---------------------|----------------|
|------------------|------------------|---------------------|----------------|
|
| Gtr II
|          ~
| Q.     E H         E E E E Q.     E   Q.      E  E E  Q      +Q    S S S S
|--------7-7-------|-5-7-8-5----------|--------------8------|--------5-7-8-7-|
|-5----------------|----------------6-|-6------10-10---10---|-(10)-----------|
|------------------|---------5--------|---------------------|----------------|
|------------------|------------------|---------------------|----------------|
|------------------|------------------|---------------------|----------------|
|------------------|------------------|---------------------|----------------|


 4/4
  E E  E   E E E E   E     E  E  E  E  E  E  E  E
|------2---3-2----------|--2--3--2----------------|
|-----------------------|-------------------------|
|---4----------4-----4--|-----------4-----4-----5-|
|-2--------------2------|--------------2-----3----|
|-----------------------|-------------------------|
|-----------------------|-------------------------|
|
| E E  E   H        +E     E  E  E  E  E  E  E  E
|---7-11-/12-------(12)-|-14-10-12----------------|
|-5---------------------|----------12-10----10----|
|-----------------------|----------------12-------|
|-----------------------|----------------------12-|
|-----------------------|-------------------------|
|-----------------------|-------------------------|


                       2/4
   E  E   E E E E E E     E  E E E
|-----3-------------3-|------------|
|--3------3-------3---|---3--------|
|-----------5---5-----|------5---5-|
|-------------3-------|--------3---|
|---------------------|------------|
|---------------------|------------|
|
|  E  H..                +H
|---------------------|------------|
|---------------------|------------|
|---------------------|------------|
|-14-10---------------|-(10)-------|
|---------------------|------------|
|---------------------|------------|


 4/4
  E E E E  E E E       E       E  E     E  E   E  E E  E
|-----2-3--2-----------------|-2--3-----2----------------|
|----------------------------|---------------------------|
|---4--------4---------4-----|-------------4------4----5-|
|-2------------2-------------|-----------------2----3----|
|----------------------------|---------------------------|
|----------------------------|---------------------------|
|
|                 ~~~~~~                       ~~~~
|              |----3-----|
| E E E E  E E E +E      +E    E +E    +E  E   Q.      E
|-7-3---7--------------------|-------------------------8-|
|-----5---10s8-7-(7)b9r==(7)-|-------------3-/10------10-|
|----------------------------|-4-(4)b6r(4)---------------|
|----------------------------|---------------------------|
|----------------------------|---------------------------|
|----------------------------|---------------------------|


                          H=H
                                              4/4
   E  E E  E  E  E E  E    E E   E  E +H        +W
|-----3---------------3-|--------------------|---------|
|--3----3----------3----|--3-----------------|---------|
|----------5-----5------|----5------5-(5)----|--(5)----|
|-------------3---------|--------3-----------|---------|
|-----------------------|--------------------|---------|
|-----------------------|--------------------|---------|
|
|  ~~~        ~~~          ~~~~~~~~~~~~~~~~~~~~~~~~~
|  Q.      E  Q.      E    Q    +H.             +W
|--8------12-12------15-|-15---(15)----------|-(15)----|
|-10------13-13------17-|-17---(17)----------|-(17)----|
|-----------------------|--------------------|---------|
|-----------------------|--------------------|---------|
|-----------------------|--------------------|---------|
|-----------------------|--------------------|---------|


  Q=142
 4/4
  Gtr III
        PM----|           PM   PM   ~~~         PM----|                   ~
  Q  Q  E S S E E   +E  E E  E E E  Q     Q  Q  E S S E E   +E  E E E E E Q
|-----------------|---------------------|-----------------|-------------------
|-----------------|---------------------|-----------------|-------------------
|-----------------|---------------------|-----------------|-------------------
|-----------------|---------------------|-----------------|-------8S7---------
|-6--5----------6-|-(6)-5-6--5----------|-6--5----------6-|-(6)-5-6S5-8-9-8---
|-4--3--3-3-3-3-4-|-(4)-3------6-7-[6]--|-4--3--3-3-3-3-4-|-(4)-3-----6-7-6---
|
| Gtr IV
|       PM----|                                 PM----|                   ~
| Q  Q  E S S E E   +E  E H.              Q  Q  E S S E E   +E  E E E E E Q
|-----------------|---------------------|-----------------|-------------------
|-----------------|---------------------|-----------------|-------------------
|-----------------|---------------------|-----------------|-------------------
|-----------------|---------------------|-----------------|-------8S7---------
|-6--5----------6-|-(6)-5---------------|-6--5----------6-|-(6)-5-6S5-8-9-8---
|-4--3--3-3-3-3-4-|-(4)-3---------------|-4--3--3-3-3-3-4-|-(4)-3-----6-7-6---


    Gtrs III, IV
          PM----|           PM  PM   ~~~
    Q  Q  E S S E E   +E  E E E E E  Q
||------------------|--------------------|
||o-----------------|--------------------|
||------------------|--------------------|
||------------------|--------------------|
||o-6--5----------6-|-(6)-5-6-5----------|
||--4--3--3-3-3-3-4-|-(4)-3-----6-7-[6]--|


        PM----|                   ~
  Q  Q  E S S E E   +E  E E E E E Q    3x
|-----------------|--------------------||
|-----------------|-------------------o||
|-----------------|--------------------||
|-----------------|-------8S7----------||
|-6--5----------6-|-(6)-5-6S5-8-9-8---o||
|-4--3--3-3-3-3-4-|-(4)-3-----6-7-6----||


    Gtr III
    Q.    Q.    Q     +E   H..         Q.    Q.    Q     +E   Q.    Q   Q
||-----------------|-----------------|----------------|---------------------
||o------13----12--|-(12)------------|----------------|------12----13-------
||--9--------------|------12---------|-9----11----12--|-(12)-----------14---
||-----------------|-----------------|----------------|---------------------
||o----------------|-----------------|----------------|---------------------
||-----------------|-----------------|----------------|---------------------
|
|   Gtr IV
|   Q.    Q.    Q     +E   H..         Q.    Q.    Q     +E   Q.    Q   Q
||-----------------|-----------------|----------------|---------------------
||o----------------|-----------------|----------------|---------------------
||-----------------|-----------------|----------------|---------------------
||-------10-----9--|--(9)------------|----------------|-------9----10-------
||o-7--------------|------10---------|-7-----9----10--|-(10)-----------12---
||-----------------|-----------------|----------------|---------------------


  Q.    Q.    Q     +E   H..          Q.    Q.    Q     +E   Q.    Q   Q
|----------------|-----------------|-14----15--------|------12-------------||
|------13----12--|-(12)------------|-------------13--|-(13)-------12--13--o||
|-9--------------|------12---------|-----------------|---------------------||
|----------------|-----------------|-----------------|---------------------||
|----------------|-----------------|-----------------|--------------------o||
|----------------|-----------------|-----------------|---------------------||
|
| Q.    Q.    Q     +E   H..          Q.    Q.    Q     +E   Q.    Q   Q
|----------------|-----------------|-----------------|---------------------||
|----------------|-----------------|-----------------|--------------------o||
|----------------|-----------------|-11----12--------|-------9-------------||
|------10-----9--|--(9)------------|-------------10--|-(10)--------9--10---||
|-7--------------|------10---------|-----------------|--------------------o||
|----------------|-----------------|-----------------|---------------------||


                                            2/4
  Gtrs III, IV
  PM--|   PM     PM|        PM--|   PM       PM|
  |-3-| |-3-|    |-3-|      |-3-| |-3-|      |-3-|
  E E E E E E Q  E E E   Q  E E E E E E Q    E E E Q
|----------------------|-------------------|----------|
|----------------------|-------------------|----------|
|-------8--------------|----------8--------|----------|
|-----------9--------8-|--------------9----|-----8----|
|-6-6-6---6------6-6---|----6-6-6---6------|-6-6------|
|----------------------|-------------------|----------|


 4/4                                        2/4
  PM--|   PM     PM|        PM--|   PM       PM|
  |-3-| |-3-|    |-3-|      |-3-| |-3-|      |-3-|
  E E E E E E Q  E E E   Q  E E E E E E Q    E E E Q
|----------------------|-------------------|----------|
|----------------------|-------------------|----------|
|-------8--------------|----------8--------|----------|
|-----------9--------8-|--------------9----|-----8----|
|-5-5-5---5------5-5---|----5-5-5---5------|-5-5------|
|----------------------|-------------------|----------|


 4/4                                        2/4
  Gtr III
  PM--|   PM     PM|        PM--|   PM       PM|
  |-3-| |-3-|    |-3-|      |-3-| |-3-|      |-3-|
  E E E E E E Q  E E E   Q  E E E E E E Q    E E E Q
|----------------------|-------------------|----------|
|----------------------|-------------------|----------|
|-------8--------------|----------8--------|----------|
|-----------9--------8-|--------------9----|-----8----|
|-6-6-6---6------6-6---|----6-6-6---6------|-6-6------|
|----------------------|-------------------|----------|
|
| Gtr IV
| PM--|   PM     PM|        PM--|   PM       PM|
| |-3-| |-3-|    |-3-|      |-3-| |-3-|      |-3-|
| E E E E E E Q  E E E   Q  E E E E E E Q    E E E Q
|----------------------|-------------------|----------|
|----------------------|-------------------|----------|
|----------------------|-------------------|----------|
|-------6--------------|----------6--------|----------|
|-----------7--------6-|--------------7----|-----6----|
|-4-4-4---4------4-4---|----4-4-4---4------|-4-4------|


 4/4                                        2/4
  PM--|   PM     PM|        PM--|   PM       PM|
  |-3-| |-3-|    |-3-|      |-3-| |-3-|      |-3-|
  E E E E E E Q  E E E   Q  E E E E E E Q    E E E Q
|----------------------|-------------------|----------|
|----------------------|-------------------|----------|
|-------8--------------|----------8--------|----------|
|-----------9--------8-|--------------9----|-----8----|
|-5-5-5---5------5-5---|----5-5-5---5------|-5-5------|
|----------------------|-------------------|----------|
|
| PM--|   PM     PM|        PM--|   PM       PM|
| |-3-| |-3-|    |-3-|      |-3-| |-3-|      |-3-|
| E E E E E E Q  E E E   Q  E E E E E E Q    E E E Q
|----------------------|-------------------|----------|
|----------------------|-------------------|----------|
|----------------------|-------------------|----------|
|-------6--------------|----------6--------|----------|
|-----------7--------6-|--------------7----|-----6----|
|-3-3-3---3------3-3---|----3-3-3---3------|-3-3------|


   6/8
    Gtrs III, IV
    S S S S S S S S S S S S   S S S S S S S S S S S S
||--------------------------|-------------------------|
||o-------------------------|-------------------------|
||--------------------------|-------------------------|
||--------------------------|-------------------------|
||o-0-0-0-0-0-0-0-0-0-0-0-0-|-0-0-0-0-0-0-0-0-0-0-0-0-|
||--------------------------|-------------------------|


  S S S S S S S S S S S S   S S S S S S S S S S S S
|-------------------------|--------------------------|
|-------------------------|--------------------------|
|-------------------------|--------------------------|
|-------------------------|--------------------------|
|-4-4-4-4-4-4-4-4-4-4-4-4-|-4-4-4-4-4-4-4-4-4-4-4-4--|
|-------------------------|--------------------------|


  S S S S S S S S S S S S   S S S S S S S S S S S S
|-------------------------|-------------------------|
|-------------------------|-------------------------|
|-------------------------|-------------------------|
|-------------------------|-------------------------|
|-------------------------|-------------------------|
|-4-4-4-4-4-4-4-4-4-4-4-4-|-4-4-4-4-4-4-4-4-4-4-4-4-|


  S S S S S S S S S S S S   S S S S S S S S S S S S     4x
|-------------------------|-----------------------------||
|-------------------------|----------------------------o||
|-------------------------|-----------------------------||
|-------------------------|-----------------------------||
|-3-3-3-3-3-3-3-3-3-3-3-3-|----------------------------o||
|-------------------------|-3-3-3-3-3-3-3-3-3-3-3-3-----||


    Q=168
   4/4
      PM--------------|        PM
    E S S S S E  S  S E E  E   E  E E  E E E Q
||---------------------------|------------------|
||o--------------------------|------------------|
||---------------------------|---10-9-----------|
||--7-----------12-12-7-9-10-|--------10-9-7-6--|
||o---0-0-0-0-0--------------|-0----------------|
||---------------------------|------------------|


    PM--------------|        PM      PM
  E S S S S E  S  S E E  E   E  E E  E  E E Q
|--------------------------|--------------------||
|--------------------------|-------------------o||
|--------------------------|---10-9----12-------||
|-7-----------12-12-7-9-10-|--------10----7-6---||
|---0-0-0-0-0--------------|-0-----------------o||
|--------------------------|--------------------||


  W          H    H      W          H    H
|----------|-----------|----------|-----------|
|----------|-----------|----------|-----------|
|----------|-----------|----------|-----------|
|----------|------5----|----------|-3---------|
|-7--------|-6----3----|-5--------|-1----3----|
|-5--------|-4---------|-3--------|------1----|


  W          H    H      W          H    Q  Q
|----------|-----------|----------|------------|
|----------|-----------|----------|------------|
|----------|-----------|----------|------------|
|----------|------5----|----------|-3----------|
|-7--------|-6----3----|-5--------|-1----3-----|
|-5--------|-4---------|-3--------|------1-----|


  Q=142
 4/4
  Gtr III
        PM----|           PM   PM   ~~~         PM----|                   ~
  Q  Q  E S S E E   +E  E E  E E E  Q     Q  Q  E S S E E   +E  E E E E E Q
|-----------------|---------------------|-----------------|-------------------
|-----------------|---------------------|-----------------|-------------------
|-----------------|---------------------|-----------------|-------------------
|-----------------|---------------------|-----------------|-------8S7---------
|-6--5----------6-|-(6)-5-6--5----------|-6--5----------6-|-(6)-5-6S5-8-9-8---
|-4--3--3-3-3-3-4-|-(4)-3------6-7-[6]--|-4--3--3-3-3-3-4-|-(4)-3-----6-7-6---
|
| Gtr IV
|       PM----|                                 PM----|                   ~
| Q  Q  E S S E E   +E  E H.              Q  Q  E S S E E   +E  E E E E E Q
|-----------------|---------------------|-----------------|-------------------
|-----------------|---------------------|-----------------|-------------------
|-----------------|---------------------|-----------------|-------------------
|-----------------|---------------------|-----------------|-------8S7---------
|-6--5----------6-|-(6)-5---------------|-6--5----------6-|-(6)-5-6S5-8-9-8---
|-4--3--3-3-3-3-4-|-(4)-3---------------|-4--3--3-3-3-3-4-|-(4)-3-----6-7-6---


    Gtrs III, IV
          PM----|           PM  PM   ~~~
    Q  Q  E S S E E   +E  E E E E E  Q
||------------------|--------------------|
||o-----------------|--------------------|
||------------------|--------------------|
||------------------|--------------------|
||o-6--5----------6-|-(6)-5-6-5----------|
||--4--3--3-3-3-3-4-|-(4)-3-----6-7-[6]--|


        PM----|                   ~
  Q  Q  E S S E E   +E  E E E E E Q    3x
|-----------------|--------------------||
|-----------------|-------------------o||
|-----------------|--------------------||
|-----------------|-------8S7----------||
|-6--5----------6-|-(6)-5-6S5-8-9-8---o||
|-4--3--3-3-3-3-4-|-(4)-3-----6-7-6----||


    Gtr III
    Q.    Q.    Q     +E   H..         Q.    Q.    Q     +E   Q.    Q   Q
||-----------------|-----------------|----------------|---------------------
||o------13----12--|-(12)------------|----------------|------12----13-------
||--9--------------|------12---------|-9----11----12--|-(12)-----------14---
||-----------------|-----------------|----------------|---------------------
||o----------------|-----------------|----------------|---------------------
||-----------------|-----------------|----------------|---------------------
|
|   Gtr IV
|   Q.    Q.    Q     +E   H..         Q.    Q.    Q     +E   Q.    Q   Q
||-----------------|-----------------|----------------|---------------------
||o----------------|-----------------|----------------|---------------------
||-----------------|-----------------|----------------|---------------------
||-------10-----9--|--(9)------------|----------------|-------9----10-------
||o-7--------------|------10---------|-7-----9----10--|-(10)-----------12---
||-----------------|-----------------|----------------|---------------------


  Q.    Q.    Q     +E   H..          Q.    Q.    Q     +E   Q.    Q   Q
|----------------|-----------------|-14----15--------|------12-------------||
|------13----12--|-(12)------------|-------------13--|-(13)-------12--13--o||
|-9--------------|------12---------|-----------------|---------------------||
|----------------|-----------------|-----------------|---------------------||
|----------------|-----------------|-----------------|--------------------o||
|----------------|-----------------|-----------------|---------------------||
|
| Q.    Q.    Q     +E   H..          Q.    Q.    Q     +E   Q.    Q   Q
|----------------|-----------------|-----------------|---------------------||
|----------------|-----------------|-----------------|--------------------o||
|----------------|-----------------|-11----12--------|-------9-------------||
|------10-----9--|--(9)------------|-------------10--|-(10)--------9--10---||
|-7--------------|------10---------|-----------------|--------------------o||
|----------------|-----------------|-----------------|---------------------||


                                            2/4
  Gtrs III, IV
  PM--|   PM     PM|        PM--|   PM       PM|
  |-3-| |-3-|    |-3-|      |-3-| |-3-|      |-3-|
  E E E E E E Q  E E E   Q  E E E E E E Q    E E E Q
|----------------------|-------------------|----------|
|----------------------|-------------------|----------|
|-------8--------------|----------8--------|----------|
|-----------9--------8-|--------------9----|-----8----|
|-6-6-6---6------6-6---|----6-6-6---6------|-6-6------|
|----------------------|-------------------|----------|


 4/4                                        2/4
  PM--|   PM     PM|        PM--|   PM       PM|
  |-3-| |-3-|    |-3-|      |-3-| |-3-|      |-3-|
  E E E E E E Q  E E E   Q  E E E E E E Q    E E E Q
|----------------------|-------------------|----------|
|----------------------|-------------------|----------|
|-------8--------------|----------8--------|----------|
|-----------9--------8-|--------------9----|-----8----|
|-5-5-5---5------5-5---|----5-5-5---5------|-5-5------|
|----------------------|-------------------|----------|


 4/4                                        2/4
  Gtr III
  PM--|   PM     PM|        PM--|   PM       PM|
  |-3-| |-3-|    |-3-|      |-3-| |-3-|      |-3-|
  E E E E E E Q  E E E   Q  E E E E E E Q    E E E Q
|----------------------|-------------------|----------|
|----------------------|-------------------|----------|
|-------8--------------|----------8--------|----------|
|-----------9--------8-|--------------9----|-----8----|
|-6-6-6---6------6-6---|----6-6-6---6------|-6-6------|
|----------------------|-------------------|----------|
|
| Gtr IV
| PM--|   PM     PM|        PM--|   PM       PM|
| |-3-| |-3-|    |-3-|      |-3-| |-3-|      |-3-|
| E E E E E E Q  E E E   Q  E E E E E E Q    E E E Q
|----------------------|-------------------|----------|
|----------------------|-------------------|----------|
|----------------------|-------------------|----------|
|-------6--------------|----------6--------|----------|
|-----------7--------6-|--------------7----|-----6----|
|-4-4-4---4------4-4---|----4-4-4---4------|-4-4------|


 4/4                                        2/4
  PM--|   PM     PM|        PM--|   PM       PM|
  |-3-| |-3-|    |-3-|      |-3-| |-3-|      |-3-|
  E E E E E E Q  E E E   Q  E E E E E E Q    E E E Q
|----------------------|-------------------|----------*|
|----------------------|-------------------|----------*|
|-------8--------------|----------8--------|----------*|
|-----------9--------8-|--------------9----|-----8----*|
|-5-5-5---5------5-5---|----5-5-5---5------|-5-5------*|
|----------------------|-------------------|----------*|
|
| PM--|   PM     PM|        PM--|   PM       PM|
| |-3-| |-3-|    |-3-|      |-3-| |-3-|      |-3-|
| E E E E E E Q  E E E   Q  E E E E E E Q    E E E Q
|----------------------|-------------------|----------*|
|----------------------|-------------------|----------*|
|----------------------|-------------------|----------*|
|-------6--------------|----------6--------|----------*|
|-----------7--------6-|--------------7----|-----6----*|
|-3-3-3---3------3-3---|----3-3-3---3------|-3-3------*|



Duration Legend
---------------
W - whole; H - half; Q - quarter; E - 8th; S - 16th; T - 32nd; X - 64th; a - acciaccatura
+ - note tied to previous; . - note dotted; .. - note double dotted
Uncapitalized letters represent notes that are staccato (1/2 duration)
Irregular groupings are notated above the duration line
Duration letters will always appear directly above the note/fret number it represents the
duration for.  Duration letters with no fret number below them represent rests.  Multi-
bar rests are notated in the form Wxn, where n is the number of bars to rest for.  Low
melody durations appear below the staff

Tablature Legend
----------------
 h   - hammer-on
 p   - pull-off
 b   - bend
 pb  - pre-bend
 r   - bend release (if no number after the r, then release immediately)
 /\  - slide into or out of (from/to "nowhere")
 s   - legato slide
 S   - shift slide
 - natural harmonic
[n]  - artificial harmonic
n(n) - tapped harmonic
 ~   - vibrato
 tr  - trill
 T   - tap
 TP  - trem. picking
 PM  - palm muting
\n/  - tremolo bar dip; n = amount to dip
 \n  - tremolo bar down
 n/  - tremolo bar up
/n\  - tremolo bar inverted dip
 =   - hold bend; also acts as connecting device for hammers/pulls
 <> - volume swell (louder/softer)
 x   - on rhythm slash represents muted slash
 o   - on rhythm slash represents single note slash

Misc Legend
-----------
 |  - bar
||  - double bar
||o - repeat start
o|| - repeat end
*|  - double bar (ending)
 :  - bar (freetime)
 $  - Segno
 &  - Coda
Tempo markers -  = BPM(8/16=s8/s16), where s8 = swing 8ths, s16 = swing 16ths

Suggest correction
Creating personal tab
Creating personal tab
You can edit any tab online and save it as your Personal.

You can edit, replace or remove any tab part or add personal notes – all changes will be seen only by you.

Personal tabs can be accessed anytime from any device, even offline.
Learn more »
Give kudos to tab author, rate the tab!
1 2 3 4 5
comments
print report bad tab
guest
You may want to rate the tab now too:
select rating
Wanna post a correction for this tab? Suggest correction