Oops, an error
Loading. Please wait.

Infernal Death bass

version 2
version 2

Whole song

Interactive

by Death
1,376 views 3 this week
no commentswrite comment
1 2 3 4 5
x 4
add to favorites
×
Save as Personal and add changes to this tab that will be seen only by you. Learn more ›
×
You can save this tab as Personal to edit and correct it or add notes. All changes will be seen only by you. Learn more »
launch autoscroll
font size
0
reset
guitar tuner
edit
Autoscroll
slow
fast
+/-
esc
set tempo
stop
Death
Scream Bloody Gore 1987
Infernal Death

Tabed by:xXDisturbedThor

Tuning:(D,G,C,F)

Intro(0:00)
F|----------------------------|-------------------------------------|
C|----------------------------|-------------------------------------|
G|--------3~-2~-------3~-2----|--------------------3--3--2--2-------|
D|--3~-2~-------3~-2~------3/-|-3-00-3-00-2-00-2-00-00-00-00-003300-|

(2x)
F|-------------------------------------|
C|-------------------------------------|
G|--------------------3--3--2--2-------|
D|-3-00-3-00-2-00-2-00-00-00-00-003300-|

F|-------------------------------------|
C|-------------------------------------|
G|--------------------3--3--2--2~~~----|
D|-3-00-3-00-2-00-2-00-00-00-00--------|

F|-----|
C|-----|
G|-----|
D|-2/--|

Pre-verse(4x)
F|---------------------|
C|---------5-4-5p4-----|
G|---4-5-4---------5p4-|
D|-2-------------------|

Verse(4x)
F|---------------------|
C|---------5-4-5p4-----|
G|---4-5-4---------5p4-|
D|-2-------------------|

Chorus(4x)
F|-----------|
C|-----------|
G|---3~-4~---|
D|-2~-----3~-|

Pre-verse(4x)
F|---------------------|
C|---------5-4-5p4-----|
G|---4-5-4---------5p4-|
D|-2-------------------|

Verse(4x)
F|---------------------|
C|---------5-4-5p4-----|
G|---4-5-4---------5p4-|
D|-2-------------------|

Chorus(4x)
F|-----------|
C|-----------|
G|---3~-4~---|
D|-2~-----3~-|

Interlube(4x)
F|-----------------|
C|-----------------|
G|------------3-3--|
D|-2222222222------|

Guitar Solo part1(4x)
F|---------------------|
C|---------5-4-5p4-----|
G|---4-5-4---------5p4-|
D|-2-------------------|

Guitar Solo part2(4x)
F|-----------|
C|-----------|
G|---3~-4~---|
D|-2~-----3~-|

Pre-Outro(4x)
F|---------------------|
C|---------5-4-5p4-----|
G|---4-5-4---------5p4-|
D|-2-------------------|

Outro part1(4x)
F|-----------------|----------------|
C|-----------------|----------------|
G|------------2-33-|-----------2-32-|
D|-3333333333------|-333333333------|

Chorus(4x)
F|-----------|
C|-----------|
G|---3~-4~---|
D|-2~-----3~-|

Outro part2(4x)
F|-----------------|----------------|
C|-----------------|----------------|
G|------------2-33-|-----------2-32-|
D|-2222222222------|-222222222------|

Ending
F|-----|
C|-----|
G|-----|
D|-2---|


This is the corrected version of a tab originally submited by Spirit_Crusher
Im pretty sure this this is all correct but if you fill differantly please fill free to 
me...
Suggest correction
Creating personal tab
Creating personal tab
You can edit any tab online and save it as your Personal.

You can edit, replace or remove any tab part or add personal notes – all changes will be seen only by you.

Personal tabs can be accessed anytime from any device, even offline.
Learn more »
comments
print report bad tab
guest
You may want to rate the tab now too:
select rating
Wanna post a correction for this tab? Suggest correction