Oops, an error
Loading. Please wait.

Lack Of Comprehension tab

version 1
version 1

Whole song

by Death
65,982 views 72 this week
9 commentsread comments
1 2 3 4 5
x 17
add to favorites
×
Save as Personal and add changes to this tab that will be seen only by you. Learn more ›
×
You can save this tab as Personal to edit and correct it or add notes. All changes will be seen only by you. Learn more »
launch autoscroll
font size
0
reset
how to read this tab
guitar tuner
backing track
0:00
0:00
edit
Autoscroll
slow
fast
+/-
esc
set tempo
stop
[Tuning]
(6) = D       (3) = F
(5) = G       (2) = A
(4) = C       (1) = d

[Intro] (0:00-0:37) Tempo = 108 bpm
Play Riff x 2 times                                                              
D|----------------------|---------------------|-------------------|--------------------------------|
A|----------------------|---------------------|-------------------|--------------------------------|
F|----------------------|---------------------|-------------------|--------------------------------|
C|-S--------------------|-7--9----------------|-------------------|-7--9--10----9----7-------------| 
G|---------------9--10--|---------------------|------------9--10--|-----------------------10---9---|
D|----8-----------------|---------------------|-8-----------------|--------------------------------|
  4/4  (7/8)2nd time     9/8                   7/8                 9/8                             |
D|----------------------|---------------------|-------------------|--------------------------------|
A|----------------------|---------------------|-------------------|--------------------------------|
F|----------------------|-9--11---------------|-------------------|-9--11--12---11----9------------|
C|-S------------11--12--|---------------------|-----------11--12--|-----------------------12---11--|
G|----10----------------|---------------------|-10----------------|--------------------------------|
D|----------------------|---------------------|-------------------|--------------------------------|

D|--------------------|---------------------|------------------------------|--------------------------------|
A|--------------------|---------------------|------------------------------|--------------------------------|
F|--------------------|---------------------|-10---9---7---7h9p7-----------|--------------------------------|
C|--------------------|-7--9----------------|----------------------10---9--|-10---9---7---7h9p7-------------|
G|-------------9--10--|---------------------|------------------------------|------------------------10---9--|
D|--7-----------------|---------------------|------------------------------|--------------------------------|
   7/8                  9/8                   15/16  (16/16)2nd time          16/16                          
D|--------------------|---------------------|-13--12--10--10h12p10----------|-------------------------------|
A|--------------------|---------------------|-----------------------13--12--|-13--12--10--10h12p10----------|
F|--------------------|-9--11---------------|-------------------------------|-----------------------12---11-|
C|------------11--12--|---------------------|-------------------------------|-------------------------------|
G|--9-----------------|---------------------|-------------------------------|-------------------------------|
D|--------------------|---------------------|-------------------------------|-------------------------------|

[Verse] (0:37-0:47) Tempo = 120 bpm - 3/4
D|---------------------------|---------------------------|
A|---------------------------|---------------------------|
F|---------------------------|---------------------------|
C|---------------------------|---------------------------|
G|--------9-----------10-----|-------12-----------10-----|
D|--8-8-8---8-8-8-8-8----8-8-|-8-8-8----8-8-8-8-8----8-8-|
 |
D|---------------------------|---------------------------|
A|---------------------------|---------------------------|
F|---------------------------|---------------------------|
C|---------------------------|---------------------------|
G|--------9-----------10-----|-------12-----------10-----|
D|--8-8-8---8-8-8-8-8----8-8-|-8-8-8----8-8-8-8-8----8-8-|

D|--------------------------|---------------------------|
A|--------------------------|---------------------------|
F|--------------------------|---------------------------|
C|--------------------------|---------------------------|
G|-------9-----------10-----|-------12-----------14-----|
D|-0-0-0---0-0-0-0-0----0-0-|-0-0-0----0-0-0-0-0----0-0-|

D|--------------------------|---------------------------|
A|--------------------------|---------------------------|
F|--------------------------|---------------------------|
C|--------------------------|---------------------------|
G|-------9-----------10-----|-------12-----------14~----|
D|-0-0-0---0-0-0-0-0----0-0-|-0-0-0----0-0-0-0-0--------|

[Pre-Chorus] (0:48-0:53)
D|------------------------|-------------------------|-------------------------|-------------------------|
A|------------------------|-------------------------|-------------------------|-------------------------|
F|------------------------|-------------------------|-------------------------|-------------------------|
C|----------------------S-|-------------------------|-------------------------|-------------------------|
G|--------------------6---|-------------------------|-------------------------|-------------------------|
D|--4-4-4-5-4-4-3-3-3-4---|-4-4-4-5-4-4-3-3-3-4-3-3-|-4-4-4-5-4-4-3-3-3-4-3-3-|-4-4-4-5-4-4-3-3-3-4-3-3-|

D|------------------------|-------------------------|
A|------------------------|-------------------------|
F|------------------------|-------------------------|
C|----------------------S-|-------------------------|
G|--------------------6---|-------------------------|
D|--4-4-4-5-4-4-3-3-3-4---|-4-4-4-5-4-4-3-3-3-4-3-3-|

D|---7-11-12p8----10p7---10p7---|---7-12-8h12p8----11p7---10p7---|
A|-9-----------10------9------8-|-9-------------10------9------9-|
F|------------------------------|--------------------------------|
C|------------------------------|--------------------------------|
G|------------------------------|--------------------------------|
D|------------------------------|--------------------------------|

[Verse] (0:53-1:04)
D|---------------------------|---------------------------|
A|---------------------------|---------------------------|
F|---------------------------|---------------------------|
C|---------------------------|---------------------------|
G|--------9-----------10-----|-------12-----------10-----|
D|--8-8-8---8-8-8-8-8----8-8-|-8-8-8----8-8-8-8-8----8-8-|
                                                         |
D|--------------------------|------------------------------|
A|--------------------------|------------------------------|
F|--------------------------|------------------------------|
C|--------------------------|------------------------------|
G|-------9-----------10-----|-------12-----------14--------|
D|-0-0-0---0-0-0-0-0----0-0-|-0-0-0----0-0-0-0-0----0-0----|

D|---------------------------|---------------------------|--------------------------|-----------------------|
A|---------------------------|---------------------------|--------------------------|-----------------------|
F|---------------------------|---------------------------|--------------------------|-----------------------|
C|---------------------------|---------------------------|--------------------------|-----------------------|
G|--------9-----------10-----|-------12-----------10-----|-------9-----------10-----|-------12-----------14~|
D|--8-8-8---8-8-8-8-8----8-8-|-8-8-8----8-8-8-8-8----8-8-|-0-0-0---0-0-0-0-0----0-0-|-0-0-0----0-0-0-0-0----|

[Pre-Chorus] (1:04-1:10)
D|--------------------------|-------------------------|-----------------------|-------------------------|
A|--------------------------|-------------------------|-----------------------|-------------------------|
F|--------------------------|-------------------------|-----------------------|-------------------------|
C|--------------------------|-------------------------|---------------------S-|-------------------------|
G|--------------------------|-------------------------|-------------------6---|-------------------------|
D|--4-4-4-5-4-4-3-3-3-4-3-3-|-4-4-4-5-4-4-3-3-3-4-3-3-|-4-4-4-5-4-4-3-3-3-4---|-4-4-4-5-4-4-3-3-3-4-3-3-|

D|----7-11-12p8----10p7---10p7---|---7-12-8h12p8----11p7---10p7---|
A|--9-----------10------9------8-|-9-------------10------9------9-|
F|-------------------------------|--------------------------------|
C|-------------------------------|--------------------------------|
G|-------------------------------|--------------------------------|
D|-------------------------------|--------------------------------|

D|-----------------------|-------------------------|
A|-----------------------|-------------------------|
F|-----------------------|-------------------------|
C|---------------------S-|-------------------------|
G|-------------------6---|-------------------------|
D|-4-4-4-5-4-4-3-3-3-4---|-4-4-4-5-4-4-3-3-3-4-3-3-|

[Break] (1:10-1:24) Tempo = 204 bpm - 4/4
D|----------------------------------|-------------------------|
A|----------------------------------|-------------------------|
F|----------------------------------|-------------------------|
C|----------------------------------|------------------2------|
G|--4-------------------------------|---------4--5--2--0------|
D|--2-2-2-2-2-2-2-2-2-2-2-2-2-2-2-2-|-2-2-2-2-2--3--0---------|
                                                              |
D|----------------------------------|-------------------------|
A|----------------------------------|-------------------------|
F|----------------------------------|------------------AH-----|
C|---------------S------------------|---------S--------2------|
G|----------------------------------|-------------------------|
D|----------------------------------|-------------------------|

D|---------------------------------|---------------------------------|
A|---------------------------------|---------------------------------|
F|---------------------------------|---------------------------------|
C|---------------------------------|---------------------------------|
G|-2-------------------------------|-5-------------------------------|
D|-0-0-0-0-0-0-0-0-0-0-0-0-0-0-0-0-|-3-3-3-3-3-3-3-3-3-3-3-3-3-3-3-3-|
                                                                     |
D|---------------------------------|---------------------------------|
A|---------------------------------|---------------------------------|
F|---------------------------------|---------------------------------|
C|---------------------------------|---------------------------------|
G|-2-------------------------------|-5-------------------------------|
D|-0-0-0-0-0-0-0-0-0-0-0-0-0-0-0-0-|-3-3-3-3-3-3-3-3-3-3-3-3-3-3-3-3-|

[Play Riff] (x2)
D|----------------------------------|-------------------------|
A|----------------------------------|-------------------------|
F|----------------------------------|-------------------------|
C|----------------------------------|------------------2------|
G|--4-------------------------------|---------4--5--2--0------|
D|--2-2-2-2-2-2-2-2-2-2-2-2-2-2-2-2-|-2-2-2-2-2--3--0---------|

D|---------------------------------|---------------------------------|
A|---------------------------------|---------------------------------|
F|---------------------------------|---------------------------------|
C|---------------------------------|---------------------------------|
G|-2-------------------------------|-5-------------------------------|
D|-0-0-0-0-0-0-0-0-0-0-0-0-0-0-0-0-|-3-3-3-3-3-3-3-3-3-3-3-3-3-3-3-3-|

 [Chorus] (1:24-1:44)
D|----------------------------|---------------------------|
A|----------------------------|---------------------------|
F|----------------------------|---------------------------|
C|----------------------------|---------------------------|
G|--2--------2----3p-2-----5--|-3--------3----3p-2--------|
D|--0--0--0--0----------3-----|-1--1--1--1----------3p-1--|
                                                          |
D|----------------------------|---------------------------|
A|----------------------------|---------------------------|
F|----------------------------|---------------------------|
C|----------------S-----------|---------------S-----------|
G|--2--------2----------------|-3--------3----------------|
D|--0--0--0--0----------------|-1--1--1--1----------------|

D|---------------------------|--------------------------|
A|---------------------------|--------------------------|
F|---------------------------|--------------------------|
C|---------------------------|--------------------------|
G|-2--------2----3p-2-----5--|-----2--3p-2-----5p-2-----|
D|-0--0--0--0----------3-----|-0-0-0--------3--------3--|
                                                        |
D|---------------------------|--------------------------|
A|---------------------------|--------------------------|
F|---------------------------|--------------------------|
C|---------------------------|--------------------------|
G|-2--------2----3p-2-----5--|-----2--3p-2-----5p-2-----|
D|-0--0--0--0----------3-----|-0-0-0--------3--------3--|

[Play Riff] (x3)
D|----------------------------|---------------------------|
A|----------------------------|---------------------------|
F|----------------------------|---------------------------|
C|----------------------------|---------------------------|
G|--2--------2----3p-2-----5--|-3--------3----3p-2--------|
D|--0--0--0--0----------3-----|-1--1--1--1----------3p-1--|

D|---------------------------|--------------------------|
A|---------------------------|--------------------------|
F|---------------------------|--------------------------|
C|---------------------------|--------------------------|
G|-2--------2----3p-2-----5--|-----2--3p-2-----5p-2-----|
D|-0--0--0--0----------3-----|-0-0-0--------3--------3--|

[Solo] (1:44-2:12) Tempo = 120 bpm
D|-----------------------------------|------------------|
A|--10----9--------------------------|------------------|
F|-------------10----9---------------|------------------|
C|------------------------10----7----|-6----------------|
G|-----------------------------------|------------------|
D|-----------------------------------|------------------|
                                                        |
D|-----------------------------------|------------------|
A|-----------------------------------|------------------|
F|-----------------------------------|------------------|
C|----------------S------------------|--------S---------|
G|-----------------------------------|------------------|
D|-----------------------------------|------------------|
                                                        |
D|-----------------------------------|------------------|
A|-----------------------------------|------------------|
F|-----------------------------------|-5/-7\-5----------|
C|-----------------------------------|------------------|
G|--2--------------------------------|-3/-5\-3----------|
D|--0--------------------------------|------------------|

D|------------------------------|---------------------------|
A|------------------------------|---------------------------|
F|------------------------------|---------------------------|
C|-6--7--9--6-7-6---6-----------|-----------6--7--7--9--9---|
G|----------------8---8-7-5-----|-5--7--7h8-----------------|
D|------------------------------|---------------------------|
                                                            |
D|--------------------------------|-----------------------------|
A|--------------------------------|-----------------------------|
F|-8--9--11--8-9-8----8-----------|------------8--9--9--11--11--|
C|-----------------10---10-9-7----|-7--9--9h10------------------|
G|--------------------------------|-----------------------------|
D|--------------------------------|-----------------------------|
                                                            |
D|------------------------------|---------------------------|
A|------------------------------|---------------------------|
F|------------------------------|---------------------------|
C|------------------------------|-4-------------------------|
G|-5----------------------------|-2------------3------------|
D|-3----------------------------|--------------1------------|

D|------------------------|-----------------------------13-10-10-12-10----|
A|------------------------|------------9h10-10h12-12h13----------------13-|
F|------------------------|-9h10-10h13------------------------------------|
C|--10--9--9~---------7-9-|-----------------------------------------------|
G|------------------------|-----------------------------------------------|
D|------------------------|-_____________very fast picking_______________-|
                                                                          |
D|------------------------|-----------------------------------------------|
A|------------------------|-----------------------------------------------|
F|--12--11--11~-----------|-----------------------------------------------|
C|------------------------|------------------------S----------------------|
G|------------------------|-----------------------------------------------|
D|------------------------|-----------------------------------------------|
                                                                          |
D|------------------------|-----------------------------------------------|
A|------------------------|-----------------------------------------------|
F|------------------------|-5/-7\-5---------------------------------------|
C|------------------------|-----------------------------------------------|
G|--2---------------------|-3/-5\-3---------------------------------------|
D|--0---------------------|-----------------------------------------------|

D|----------------------------------------|---------------------------------|
A|-10h12p10-------------------------------|---------------------------------|
F|----------10h12p10-9--------------------|---------------------------------|
C|---------------------10----9-------9-10-|-12-9h10p9-----------------------|
G|------------------------12------12------|-----------12-11-10-12-----------|
D|----------------------------------------|-----------------------13--------|
                                                                            |
D|----------------------------------------|---------------------------------|
A|----------------------------------------|---------------------------------|
F|----------------------------------------|---------------------------------|
C|--------------------S-------------------|----------------S----------------|
G|----------------------------------------|---------------------------------|
D|----------------------------------------|---------------------------------|
                                                                            |
D|----------------------------------------|---------------------------------|
A|----------------------------------------|---------------------------------|
F|----------------------------------------|---------------------------------|
C|----------------------------------------|-4-------------------------------|
G|-5--------------------------------------|-2---------------3---------------|
D|-3--------------------------------------|-----------------1---------------|

D|--------------------------------------------|---------------------|
A|--------------------------------------------|---------------------|
F|--------------------------------13--14--16--|-16--------------16--|
C|--------------------12--14--15--------------|---------------------|
G|--------11-12-14-15-------------------------|---------------------|
D|--12-13-------------------------------------|---------------------|
                                                                    |
D|--------------------------------------------|---------------------|
A|--------------------------------------------|---------------------|
F|--------------------------------------------|-5/-7\-5-------------|
C|--------------------------------------------|---------------------|
G|--2-----------------------------------------|-3/-5\-3-------------|
D|--0-----------------------------------------|---------------------|

D|-------------------------------------------------|-------------------------------------|
A|-------------------------------------------------|-------------------------------17----|
F|-17p16p14-16p14-------------17p16p14-------------|-------------------17----16----------|
C|----------------17-14h16h17----------17p16p14-17-|-14----16----17----------------------|
G|-------------------------------------------------|-------------------------------------|
D|_______________very fast picking_________________|-------------------------------------|
                                                                                         |
D|-------------------------------------------------|-------------------------------------|
A|-------------------------------------------------|-------------------------------------|
F|-------------------------------------------------|-------------------------------------|
C|-------------------------------------------------|-4-----------------------------------|
G|-5-----------------------------------------------|-2-----------------3-----------------|
D|-3-----------------------------------------------|-------------------1-----------------|

D|--------------------------------------|-17--------17------------|
A|--16----------20----19----17----19----|-20/(22)---20/(22)-20-19-|
F|--------17----------------------------|----Full------Full-------|
C|--------------------------------------|-------------------------|
G|--------------------------------------|-------------------------|
D|--------------------------------------|-------------------------|
                                                                   |
D|--------------------------------------|-------------------------|
A|--------------------------------------|-------------------------|
F|--------------------------------------|-5/-7\-5-----------------|
C|--------------------------------------|-------------------------|
G|--2-----------------------------------|-3/-5\-3-----------------|
D|--0-----------------------------------|-------------------------|

D|-------------------------19-20-19-17-------------|-----------------------------|
A|-20-17-17h18-18h20-20h22-------------20-19-17-16-|-17--------------------------|
F|-------------------------------------------------|----14-16--------------------|
C|-------------------------------------------------|-------------14h17-16--------|
G|-------------------------------------------------|-----------------------------|
D|_______________very fast picking_________________|-----------------------------|
                                                                               |
D|-------------------------------------------------|-----------------------------|
A|-------------------------------------------------|-----------------------------|
F|-------------------------------------------------|-----------------------------|
C|-------------------------------------------------|-4---------------------------|
G|-5-----------------------------------------------|-2-------------3-------------|
D|-3-----------------------------------------------|---------------1-------------|

 [Break] (2:13-2:31) Tempo = 204 bpm
 Play Riff x 2 times
D|---------------------------------|----------------------------|
A|---------------------------------|----------------------------|
F|--4------------------------------|----------------------------|
C|---------------------------------|-5--------------4--5--4--2--|
G|-----2-2-2-2-2-2-2-2-2-2-2-2-2-2-|----2-2-2-2-2-2-------------|
D|---------------------------------|----------------------------|

D|--------------------------------|----------------------------|
A|--------------------------------|----------------------------|
F|-4------------------------------|----------------------------|
C|--------------------------------|-5--------------4--5--4--2--|
G|----2-2-2-2-2-2-2-2-2-2-2-2-2-2-|----2-2-2-2-2-2-------------|
D|--------------------------------|----------------------------|

D|--------------------------------|-------------------------|
A|--------------------------------|-------------------------|
F|--4-----------------------------|----------------5~-------|
C|-----------------5--------------|-4-----------------------|
G|-----3-3-3-3-3-3----3-3-3-3-3-3-|----3-3-3-3-3-3----------|
D|--------------------------------|-------------------------|

D|-------------------------------|----------------------------|
A|-------------------------------|----------------------------|
F|-4-----------------------------|----------------7--5--4-----|
C|----------------5--------------|-4-----------------------5--|
G|----0-0-0-0-0-0----0-0-0-0-0-0-|----0-0-0-0-0-0-------------|
D|-------------------------------|----------------------------|

 [Verse] (2:31-2:42) Tempo = 120 bpm - 3/4
D|---------------------------|---------------------------|
A|---------------------------|---------------------------|
F|---------------------------|---------------------------|
C|---------------------------|---------------------------|
G|--------9-----------10-----|-------12-----------10-----|
D|--8-8-8---8-8-8-8-8----8-8-|-8-8-8----8-8-8-8-8----8-8-|

D|--------------------------|---------------------------|
A|--------------------------|---------------------------|
F|--------------------------|---------------------------|
C|--------------------------|---------------------------|
G|-------9-----------10-----|-------12-----------14-----|
D|-0-0-0---0-0-0-0-0----0-0-|-0-0-0----0-0-0-0-0----0-0-|

D|---------------------------|---------------------------|
A|---------------------------|---------------------------|
F|---------------------------|---------------------------|
C|---------------------------|---------------------------|
G|--------9-----------10-----|-------12-----------10-----|
D|--8-8-8---8-8-8-8-8----8-8-|-8-8-8----8-8-8-8-8----8-8-|

D|--------------------------|---------------------------|
A|--------------------------|---------------------------|
F|--------------------------|---------------------------|
C|--------------------------|---------------------------|
G|-------9-----------10-----|-------12-----------14~----|
D|-0-0-0---0-0-0-0-0----0-0-|-0-0-0----0-0-0-0-0--------|

 [Pre-Chorus] (2:42-2:47)
D|------------------------|-------------------------|-------------------------|-------------------------|
A|------------------------|-------------------------|-------------------------|-------------------------|
F|------------------------|-------------------------|-------------------------|-------------------------|
C|----------------------S-|-------------------------|-------------------------|-------------------------|
G|--------------------6---|-------------------------|-------------------------|-------------------------|
D|--4-4-4-5-4-4-3-3-3-4---|-4-4-4-5-4-4-3-3-3-4-3-3-|-4-4-4-5-4-4-3-3-3-4-3-3-|-4-4-4-5-4-4-3-3-3-4-3-3-|

D|------------------------|-------------------------|
A|------------------------|-------------------------|
F|------------------------|-------------------------|
C|----------------------S-|-------------------------|
G|--------------------6---|-------------------------|
D|--4-4-4-5-4-4-3-3-3-4---|-4-4-4-5-4-4-3-3-3-4-3-3-|

D|---7-11-12p8----10p7---10p7---|---7-12-8h12p8----11p7---10p7---|
A|-9-----------10------9------8-|-9-------------10------9------9-|
F|------------------------------|--------------------------------|
C|------------------------------|--------------------------------|
G|------------------------------|--------------------------------|
D|------------------------------|--------------------------------|

[Verse] (2:48-2:58)
D|---------------------------|---------------------------|
A|---------------------------|---------------------------|
F|---------------------------|---------------------------|
C|---------------------------|---------------------------|
G|--------9-----------10-----|-------12-----------10-----|
D|--8-8-8---8-8-8-8-8----8-8-|-8-8-8----8-8-8-8-8----8-8-|

D|--------------------------|---------------------------|
A|--------------------------|---------------------------|
F|--------------------------|---------------------------|
C|--------------------------|---------------------------|
G|-------9-----------10-----|-------12-----------14-----|
D|-0-0-0---0-0-0-0-0----0-0-|-0-0-0----0-0-0-0-0----0-0-|

D|---------------------------|---------------------------|
A|---------------------------|---------------------------|
F|---------------------------|---------------------------|
C|---------------------------|---------------------------|
G|--------9-----------10-----|-------12-----------10-----|
D|--8-8-8---8-8-8-8-8----8-8-|-8-8-8----8-8-8-8-8----8-8-|

D|--------------------------|---------------------------|
A|--------------------------|---------------------------|
F|--------------------------|---------------------------|
C|--------------------------|---------------------------|
G|-------9-----------10-----|-------12-----------14~----|
D|-0-0-0---0-0-0-0-0----0-0-|-0-0-0----0-0-0-0-0--------|

[Pre-Chorus] (2:58-3:04)
D|--------------------------|-------------------------|-----------------------|-------------------------|
A|--------------------------|-------------------------|-----------------------|-------------------------|
F|--------------------------|-------------------------|-----------------------|-------------------------|
C|--------------------------|-------------------------|---------------------S-|-------------------------|
G|--------------------------|-------------------------|-------------------6---|-------------------------|
D|--4-4-4-5-4-4-3-3-3-4-3-3-|-4-4-4-5-4-4-3-3-3-4-3-3-|-4-4-4-5-4-4-3-3-3-4---|-4-4-4-5-4-4-3-3-3-4-3-3-|

D|----7-11-12p8----10p7---10p7---|---7-12-8h12p8----11p7---10p7---|
A|--9-----------10------9------8-|-9-------------10------9------9-|
F|-------------------------------|--------------------------------|
C|-------------------------------|--------------------------------|
G|-------------------------------|--------------------------------|
D|-------------------------------|--------------------------------|

D|-----------------------|-------------------------|
A|-----------------------|-------------------------|
F|-----------------------|-------------------------|
C|---------------------S-|-------------------------|
G|-------------------6---|-------------------------|
D|-4-4-4-5-4-4-3-3-3-4---|-4-4-4-5-4-4-3-3-3-4-3-3-|

[Break] (3:04-3:19) Tempo = 204 bpm - 4/4
D|----------------------------------|-------------------------|
A|----------------------------------|-------------------------|
F|----------------------------------|-------------------------|
C|----------------------------------|------------------2------|
G|--4-------------------------------|---------4--5--2--0------|
D|--2-2-2-2-2-2-2-2-2-2-2-2-2-2-2-2-|-2-2-2-2-2--3--0---------|

D|---------------------------------|---------------------------------|
A|---------------------------------|---------------------------------|
F|---------------------------------|---------------------------------|
C|---------------------------------|---------------------------------|
G|-2-------------------------------|-5-------------------------------|
D|-0-0-0-0-0-0-0-0-0-0-0-0-0-0-0-0-|-3-3-3-3-3-3-3-3-3-3-3-3-3-3-3-3-|

D|----------------------------------|-------------------------|
A|----------------------------------|-------------------------|
F|----------------------------------|------------------AH-----|
C|---------------S------------------|---------S--------2------|
G|----------------------------------|-------------------------|
D|----------------------------------|-------------------------|

D|---------------------------------|---------------------------------|
A|---------------------------------|---------------------------------|
F|---------------------------------|---------------------------------|
C|---------------------------------|---------------------------------|
G|-2-------------------------------|-5-------------------------------|
D|-0-0-0-0-0-0-0-0-0-0-0-0-0-0-0-0-|-3-3-3-3-3-3-3-3-3-3-3-3-3-3-3-3-|

[Play Riff] (x2)
D|----------------------------------|-------------------------|
A|----------------------------------|-------------------------|
F|----------------------------------|-------------------------|
C|----------------------------------|------------------2------|
G|--4-------------------------------|---------4--5--2--0------|
D|--2-2-2-2-2-2-2-2-2-2-2-2-2-2-2-2-|-2-2-2-2-2--3--0---------|

D|---------------------------------|---------------------------------|
A|---------------------------------|---------------------------------|
F|---------------------------------|---------------------------------|
C|---------------------------------|---------------------------------|
G|-2-------------------------------|-5-------------------------------|
D|-0-0-0-0-0-0-0-0-0-0-0-0-0-0-0-0-|-3-3-3-3-3-3-3-3-3-3-3-3-3-3-3-3-|

[Chorus] (3:19-3:41)
D|----------------------------|---------------------------|
A|----------------------------|---------------------------|
F|----------------------------|---------------------------|
C|----------------------------|---------------------------|
G|--2--------2----3p-2-----5--|-3--------3----3p-2--------|
D|--0--0--0--0----------3-----|-1--1--1--1----------3p-1--|
                                                           |
D|----------------------------|---------------------------|
A|----------------------------|---------------------------|
F|----------------------------|---------------------------|
C|----------------S-----------|---------------------------|
G|--2--------2----------------|-3--------3----S-----------|
D|--0--0--0--0----------------|-1--1--1--1----------------|

D|---------------------------|--------------------------|
A|---------------------------|--------------------------|
F|---------------------------|--------------------------|
C|---------------------------|--------------------------|
G|-2--------2----3p-2-----5--|-----2--3p-2-----5p-2-----|
D|-0--0--0--0----------3-----|-0-0-0--------3--------3--|
                                                      |
D|---------------------------|--------------------------|
A|---------------------------|--------------------------|
F|---------------------------|--------------------------|
C|---------------------------|--------------------------|
G|-2--------2----3p-2-----5--|-----2--3p-2-----5p-2-----|
D|-0--0--0--0----------3-----|-0-0-0--------3--------3--|

[Play Riff] (x2)
D|----------------------------|---------------------------|
A|----------------------------|---------------------------|
F|----------------------------|---------------------------|
C|----------------------------|---------------------------|
G|--2--------2----3p-2-----5--|-3--------3----3p-2--------|
D|--0--0--0--0----------3-----|-1--1--1--1----------3p-1--|

D|---------------------------|--------------------------|
A|---------------------------|--------------------------|
F|---------------------------|--------------------------|
C|---------------------------|--------------------------|
G|-2--------2----3p-2-----5--|-----2--3p-2-----5p-2-----|
D|-0--0--0--0----------3-----|-0-0-0--------3--------3--|

[Last Time]
D|----------------------------|---------------------------|
A|----------------------------|---------------------------|
F|----------------------------|---------------------------|
C|----------------S-----------|---------------------------|
G|--2--------2----------------|-3--------3----S-----------|
D|--0--0--0--0----------------|-1--1--1--1----------------|

D|---------------------------|--------------------------|
A|---------------------------|--------------------------|
F|---------------------------|--------------------------|
C|---------------------------|--------------------------|
G|-2--------2----3p-2-----5--|-----2--3p-2-----5p-2-----|
D|-0--0--0--0----------3-----|-0-0-0--------3--------3--|

************************************

| p    pull-off             
| X    dead note (left hand)
| h    hammer-on            
| *    palm mute (right hand)
| t    tap-on               
| .    slight palm mute
| X\   pick slide           
| NH   natural harmonic
| ~    vibrato              
| PH   pinch harmonic
| /\/  tremolo bar vibrato  
| AH   artificial harmonic
| /    slide up             
| ( )  ghost note/bend note
| \    slide down           
| tr   trill
| ^    bend                 
| tm   trem picking
| ^r   bend and release     
| *    special note/info
| g.^  gradual bend         
| S    rest

************************************
Suggest correction
Creating personal tab
Creating personal tab
You can edit any tab online and save it as your Personal.

You can edit, replace or remove any tab part or add personal notes – all changes will be seen only by you.

Personal tabs can be accessed anytime from any device, even offline.
Learn more »
comments
print report bad tab
9 comments total. Showing first comments.
0 reply
southern riff 10 Nov 28, 2007 10:48 AM

its a good ****ing song man :D

0 reply
trivium036 40 Jan 12, 2008 09:24 AM

The versus of this song are so ****ing powerful :]
great tab :]

-2 reply
Barbarian Kayak 10 Nov 13, 2011 03:00 PM

So, basically its Drop C, only with the Lowest string as D?

guest
Wanna post a correction for this tab? Suggest correction