Oops, an error
Loading. Please wait.

Scream Bloody Gore Tab

version 1
version 1

Whole song

5,003 views 6 this week
2 commentsread comments
1 2 3 4 5
accurate
x 4
add to favorites
launch autoscroll
font size
0
reset
how to read this tab
guitar tuner
Autoscroll
slow
fast
+/-
esc
set tempo
stop
Help us to improve Ultimate-Guitar.com Take our survey!
×
                           DEATH - SCREAM BLOODY GORE 
                       From the Album - SCREAM BLOODY GORE 
                         Copyright: COMBAT RECORDS 1987 
                           Version 1.0 - MAR 16, 2002 

                           ~~R.I.P Chuck Schuldiner~~ 

Transcribed By: James Williams (Inverted) 

For Questions, Comments, Newest Version, or Corrections contact 
Inverted: at Inverted_one@hotmail.com 

Check Out Death8699.com, With More Transcriptions On It: 
http://www.death8699.com 

.  - palm mute           /  - slide up to 
\  - slide down to       ~  - vibrato 
h  - hammer on           b  - Bend 
p  - pull off            Suffixes for bend 
t  - tap                 f  - full bend    h - half bend 
ph - pinched harmonic    q  - quarter bend t - tap bend 
*  - see comment         ^  - Hold bend    r release bend 
x  - Stuccatto           ~  - vibrato bend 
,  - slight palm mute    () - ghost note, sustained note 
"  - tremolo note        <> - Trill 

TUNNING "D"G"C"F"A"D"

Riff 1-A 
|--------------------------------------------------|
|--------------------------------------------------|
|--------------------------------------------------|Gtr  
|--2--3--5--6--2--3--5--6--2--3--5--6--2--3--5--6--| I 
|--2--3--5--6--2--3--5--6--2--3--5--6--2--3--5--6--| 
|--0--1--3--4--0--1--3--4--0--1--3--4--0--1--3--4--| 

Riff 1-B
|--------------------------------------------------| 
|--------------------------------------------------| 
|--------------------------------------------------|Gtr
|-----3--5--6-----3--5--6-----3--5--6-----3--5--6--|II 
|-----3--5--6-----3--5--6-----3--5--6-----3--5--6--| 
|-000-1--3--4-000-1--3--4-000-1--3--4-000-1--3--4--| 
  ...         ...         ...         ...

Riff 2-A 
|--------------------------------------------| 
|--------------------------------------------| 
|--------------------------------------------|Gtr  
|--5--4--2---5--4--2-------------------------| I
|--5--4--2---5--4--2---3322------5544--------| 
|--3--2--0---3--2--0-------333333----555555--| 

Riff 2-B
|--------------------------------------------| 
|--------------------------------------------| 
|--------------------------------------------|Gtr
|--------------------------------------------|II
|----------------------3322------5544--------| 
|--33220000003322000000----333333----555555--| 

Riff 3 
|-------------------------|-------------------------| 
|-------------------------|-------------------------| 
|-----7--8--7--5--7-------|----7--8--7--5--7--------| 
|--5--5--6--5--3--5--8--7-|-5--5--6--5--3--9--8--7--| 
|--3-----------------6--5-|-3-----------------6--5--| 
|-------------------------|-------------------------| 

Riff 4-A 
|--------------------------------------------| 
|--------------------------------------------| 
|--------------------------------------------| 
|--2-------3---------------------------------| 
|--2-------3---------------------------------| 
|--0-------1-------332222332222332222332332--| 

Riff 4-B 
|--------------------------------------------| 
|--------------------------------------------| 
|--------------------------------------------| 
|--------------------------------------------| 
|--------------------------------------------| 
|--0000000011111111332222332222332222332332--| 

Riff 5 
|---------------------------------|----------------------------| 
|---------------------------------|----------------------------| 
|---------------------------------|----------------------------| 
|--5----8----5------7----8--------|---7----8----5------7----8--| 
|--7----6----3------5----6----7---|---5----6----3------5----6--| 
|-----------------------------5---|----------------------------| 

Riff 6 
|-------------------------------------------------| 
|-------------------------------------------------| 
|-------------------------------------------------| 
|--------------------------------------------9-8--| 
|--7-----7-----6-----6-----7-----7-----7-8-7------| 
|--5-0-0-5-0-0-4-0-0-4-0-0-5-0-0-5-0-0------------| 
     . .   . .   . .   . .   . .   . . 
|-------------------------------------------------| 
|-------------------------------------------------| 
|-------------------------------------------------| 
|--------------------------------------------9-8--| 
|--7-----7----10----10-----7-----7-----7-8-7------| 
|--5-0-0-5-0-0-8-0-0-8-0-0-5-0-0-5-0-0------------| 
     . .   . .   . .   . .   . .   . . 

Riff 7 
|------------------------------------------------------------------------| 
|------------------------------------------------------------------------| 
|------------------------------------------------------------------------| 
|----------7-9---------7-9---------7-9-----------------------------------| 
|----7-9-6-------7-9-6-------7-9-6---------------------------------------| 
|--6-----------6-----------6-----------66666666666666666666666666666666--| 
   . . . . . . . . . . . . . . . . . .

Riff 8 (Solo Riff) 
|--------------------------------------------------------------------| 
|--------------------------------------------------------------------| 
|--------------------------------------------------------------------| 
|--------------------------------------------------------------------| 
|--------------------------------------------------------------------| 
|--9999999999999999777777777777777766666666666666666666666666666666--| 

Note: Sorry about the craming of the notes for the fast part of 
      the solo. They repeat as followed: 12, 14, 16, 14 ect... 

Solo (D#Eb Locrian)
|---------------------------12-14-16-12141614121416141214161412141614- 
|--------------------7-9-10------------------------------------------- 
|--------------6-8-9-------------------------------------------------- 
|--------6-7-9-------------------------------------------------------- 
|--6-7-9-------------------------------------------------------------- 
|--------------------------------------------------------------------- 
   . . . . . .

-121416141214161412141614121416141214161412141614--16^-14-12-14^------
---------------------------------------------------bf--------bf---9-7-
---------------------------------------------------------------------- 
---------------------------------------------------------------------- 
---------------------------------------------------------------------- 
---------------------------------------------------------------------- 

--------------------------------12^-14^-16^--| 
----------------------7-9-10^---bf--bf--bf---| 
-9-8-6--ph------6-8-9-----bf-----------------| 
-------9-7~/--9------------------------------| 
---------------------------------------------| 
---------------------------------------------| 


This song has been transcribed in memory of Chuck Schuldiner (R.I.P.) 
You were a true brother of metal and will not be forgotten. You will 
be with us eternally. Farewell, Chuck...
Suggest correction
comments
print report bad tab
2 comments total.
0 reply
Blood Hawk 70 wrote on June 30 2006, 02:02 pm

Sick Tab man!

\M/DEATH\M/

R.I.P Chuck

0 reply
DeathzMetal666 299 wrote on March 30 2009, 09:45 pm

not really acurrate at all 3 stars

guest
You may want to rate the tab now too:
select rating
Wanna post a correction for this tab? Suggest correction