Oops, an error
Loading. Please wait.

See Through Dreams tab

version 2
version 2

Whole song

Interactive

by Death
2,974 views 6 this week
no commentswrite comment
1 2 3 4 5
x 3
add to favorites
×
Save as Personal and add changes to this tab that will be seen only by you. Learn more ›
×
You can save this tab as Personal to edit and correct it or add notes. All changes will be seen only by you. Learn more »
launch autoscroll
font size
0
reset
how to read this tab
guitar tuner
edit
Autoscroll
slow
fast
+/-
esc
set tempo
stop
Author
DEATH
See Through Dreams

There wasn't a decent enough tab of this up so I thought I'd make one :)

Didn't bother with palm mutes, note timings or riff order just listen to the song to get those!

ENJOY

Tuning - D,G,C,F,A,D

Riff 1                                 *2nd guitar comes in here 1st repeat*
                                            V 
|------------------------|------------------------------|  x4
|------------------------|------------------------------|
|------------------------|------------------------------|
|--------------------3-3-|--------------------4-5-----7-|
|------------------3-1-1-|------------------4-2-3-5-6-5-|
|-0000000000000000-1-----|-2222222222222222-2-----3-4---|


Riff 2

|-------------------------|-------------------------| x2
|-------------------------|-------------------------|
|-------------------------|-------------------------|
|-------------------------|-------------------------|
|---5-6---5-4---5-6---5-4-|-6-5---4-5---6-5---4-5---|
|-4-----3-----4-----3-----|-----4-----3-----4-----3-|

Riff 2 Variation (harmonised part)
Guitar 1
|--------------------------|--------------------------|  x2
|--------------------------|--------------------------|
|--------------------------|--------------------------|
|--------------------------|--------------------------|
|---5566--5544--5566--5544-|-6655--4455--6655--4455---|
|-44----33----44----33-----|-----44----33----44----33-|

Guitar 2 (plays this first time, then guitar 1 part)
|--------------------------|--------------------------| 
|--------------------------|--------------------------|
|--------------------------|--------------------------|
|---7788--7766--7788--7766-|-8877--6677--8877--6677---|
|-66----55----66----55-----|-----66----55----66----55-|
|--------------------------|--------------------------|


Riff 3
                      *
|---------------------|----------------------------------| x4 (end on * 4th time)
|---------------------|----------------------------------|
|---------------------|----------------------------------|
|-6---7-6-------------|----------------------------------|
|-4-------7-7---7-6---|----------------------------------|
|-----------5-------7-|-00000000000000004444444444444444-|

every 2nd repeat guitar 2 plays
|---------------------|----------------------------------|
|---------------------|----------------------------------|
|-----9-8-------------|----------------------------------|
|-6-------9-----9-8---|----------------------------------|
|-4---------7-------9-|----------------------------------|
|-----------5---------|-00000000000000004444444444444444-|


Riff 4

|-----------------------------|--------------------------------| x4
|-----------------------------|--------------------------------|
|-----------------------------|--------------------------------|
|---------------------------4-|--------------------------------|
|---------------------------2-|-------------------------2h3----|
|-33333333-4~-33333333-4~-3---|-33333333-4~-3333333--3h4----2~-|
           ^ heavy vibrato (almost a 1/4 bend and release)

Riff 5 (Under solo)

|---------------------------------|---------------------------------| x6
|---------------------------------|---------------------------------|
|---------------------------------|---------------------------------|
|---------------------------------|---------------------------------|
|-44444444444444444444444444444444|----------------3333333333333333-|
|---------------------------------|5555555555555555-----------------|


Riff 6              guitar 2 comes in
First time            V
|---------------------------------|---------------------------------|
|---------------------------------|---------------------------------|
|---------------------------------|---------------------------------|
|---------------------4---3-------|---------------------4---3-------|
|---------------------2---1---3---|-4---5---7---5---4---2---1---3---|
|-3-0-3-0-5-0-3-0-2-0---0---0-1-0-|-2-0-3-0-5-0-3-0-2-0---0---0-1---|

|---------------------------------|---------------------------------| x3
|---------------------------------|---------------------------------|
|---------------------------------|---------------------------------|
|---------------------4---3-------|---------------------4---3-------|
|---------------------2---1---3---|-4---5---7---5---4---2---1---3---|
|-2-0-3-0-5-0-3-0-2-0---0---0-1-0-|-2-0-3-0-5-0-3-0-2-0---0---0-1---|

Riff 1 x4
Riff 2 x2
Riff 2 Variation x2
Riff 3 x3 1/2 (doesn't play last bar on 4th repeat)
Riff 4 x4
2 bar rest
Riff 5 x6
Riff 6
Riff 1 x4
Riff 2 x2
Riff 2 Variation x2
Riff 3 x3 1/2 (doesn't play last bar on 4th repeat)
Riff 4 x8 (fade out begins on 5th repeat)

            
            
Suggest correction
Creating personal tab
Creating personal tab
You can edit any tab online and save it as your Personal.

You can edit, replace or remove any tab part or add personal notes – all changes will be seen only by you.

Personal tabs can be accessed anytime from any device, even offline.
Learn more »
Give kudos to tab author, rate the tab!
1 2 3 4 5
comments
print report bad tab
guest
You may want to rate the tab now too:
select rating
Wanna post a correction for this tab? Suggest correction