Oops, an error
Loading. Please wait.

Spirit Crusher Tab

version 2
version 2

Whole song

11,548 views 126 this week
no commentswrite comment
1 2 3 4 5
x 3
add to favorites
launch autoscroll
font size
0
reset
how to read this tab
guitar tuner
backing track
0:00
0:00
×
Best way to learn
"Spirit Crusher"
Autoscroll
slow
fast
+/-
esc
set tempo
stop
Author
Tuning
#----------------------------------PLEASE NOTE---------------------------------#
#This file is the author's own work and represents their interpretation of the #
#song. You may only use this file for private study, scholarship, or research. #
#------------------------------------------------------------------------------#

SPIRIT CRUSHER
As recorded by Death
(From the 2004 Album THE SOUND OF PERSEVERANCE)

Transcribed by livingzombie


Words and Music by Chuck Schuldiner

Gtr I (D G C F A D) - 'Chuck Schuldiner'
Gtr II (D G C F A D) - 'Shannon Hamm'
Gtr III (D G C F A D) - 'Solo Harmony'

   Intro
    E=217
    N.C.
   7/8       9/8         7/8       9/8
    Gtrs I, II
    W         W           W         W
||----------|-----------|---------|-------||
||o---------|-----------|---------|------o||
||----------|-----------|---------|-------||
||----------|-----------|---------|-------||
||o---------|-----------|---------|------o||
||----------|-----------|---------|-------||


   Verse
    Q.=77
    $
   6/8
    PM|            PM|            PM|            PM|
    E E E  E E E   E E E  E E E   E E E  E E E   E E E  E E E
||---------------|--------------|--------------|--------------|
||o--------------|--------------|--------------|--------------|
||---------------|--------------|--------------|--------------|
||------8-/9-----|-----8-/9-----|-----8-/9-----|-----8-/9-----|
||o---6------7---|---6------7---|---6------7---|---6------7---|
||--4----------5-|-4----------5-|-4----------5-|-4----------5-|


  Gtr I
  E E  E   E E E   E E  E   E E E   E E  E   E E E   E E  E   E E E
|----------------|----------------|----------------|------------------||
|----------------|----------------|----------------|-----------------o||
|-----10-/11-----|-----10-/11-----|-----10-/11-----|-----10-/11-------||
|---8--------9---|---8--------9---|---8--------9---|---8--------9-----||
|-6------------7-|-6------------7-|-6------------7-|-6------------7--o||
|----------------|----------------|----------------|------------------||
|
| Gtr II
| PM|              PM|              PM|              PM|
| E E  E   E E E   E E  E   E E E   E E  E   E E E   E E  E   E E E
|----------------|----------------|----------------|------------------||
|----------------|----------------|----------------|-----------------o||
|----------------|----------------|----------------|------------------||
|------8--/9-----|------8--/9-----|------8--/9-----|------8--/9-------||
|---6--------7---|---6--------7---|---6--------7---|---6--------7----o||
|-4------------5-|-4------------5-|-4------------5-|-4------------5---||


    Q.=91
    N.C.
    Gtrs I, II
      PM--|   PM--|      PM--|   PM--|     PM--|   PM--|      PM--|   PM--|
    E S S E E S S E    E S S E E S S E   E S S E E S S E    E S S E E S S E
||------------------|------------------|-----------------|-------------------|
||o-----------------|------------------|-----------------|-------------------|
||------------------|------------------|-----------------|-------------------|
||------------------|----------9-------|-7---------------|-------------------|
||o-7-------9-------|-10---------------|---------9-------|-10-------9--------|
||----0-0-0---0-0-0-|----0-0-0---0-0-0-|---0-0-0---0-0-0-|----0-0-0---0-0-0--|


  D5      E5        F#5      D5        E5
  Gtr I
    PM--|   PM--|      PM--|   PM--|    ~~~    PM------------------|
  E S S E E S S E    E S S E E S S E    Q.   E S S E   E E E S S E E
|-----------------|------------------|---------------|----------------||
|-----------------|------------------|---------------|---------------o||
|-----------------|------------------|---------------|----------------||
|-7-------9-------|-11-------7-------|---------------|----------------||
|-5-------7-------|--9-------5-------|-[7]-----------|---------------o||
|---0-0-0---0-0-0-|----0-0-0---0-0-0-|-------0-0-0-0-|-0-0-0-0-0-0-0--||
|
| Gtr II
|   PM--|   PM--|      PM--|   PM--|    ~~~    PM------------------|
| E S S E E S S E    E S S E E S S E    Q.   E S S E   E E E S S E E
|-----------------|------------------|---------------|----------------||
|-----------------|------------------|---------------|---------------o||
|-----------------|------------------|---------------|----------------||
|-7-------9-------|-11-------7-------|-[9]-----------|----------------||
|-5-------7-------|--9-------5-------|---------------|---------------o||
|---0-0-0---0-0-0-|----0-0-0---0-0-0-|-------0-0-0-0-|-0-0-0-0-0-0-0--||


                                     Q=192
  N.C.
                                      4/4
  Gtrs I, II
    PM--|   PM--|      PM--|   PM--|     PM--------|   PM--------|
  E S S E E S S E    E S S E E S S E   E S S S S S S E S S S S S S
|-----------------|------------------|-----------------------------|
|-----------------|------------------|-----------------------------|
|-----------------|------------------|-----------------------------|
|-----------------|------------------|-----------------------------|
|-7-------9-------|-10-------9-------|-7-------------9-------------|
|---6-6-6---6-6-6-|----6-6-6---6-6-6-|---7-7-7-7-7-7---7-7-7-7-7-7-|


     PM--------|   PM--------|
   E S S S S S S E S S S S S S
|------------------------------|
|------------------------------|
|------------------------------|
|------------------------------|
|-10-------------9-------------|
|----7-7-7-7-7-7---7-7-7-7-7-7-|


    PM--------|   PM--------|      PM--------|   PM--------|
  E S S S S S S E S S S S S S    E S S S S S S E S S S S S S
|-----------------------------|------------------------------|
|-----------------------------|------------------------------|
|-----------------------------|------------------------------|
|-----------------------------|------------------------------|
|-7-------------9-------------|-10-------------9-------------|
|---8-8-8-8-8-8---8-8-8-8-8-8-|----8-8-8-8-8-8---8-8-8-8-8-8-|


  Gtr I
     PM------------|      PM------------|
  E  S  S  S  S  S  S  E  S  S  S  S  S  S
|------------------------------------------|
|------------------------------------------|
|------------------------------------------|
|------------------------------------------|
|-9-------------------12-------------------|
|---10-10-10-10-10-10----10-10-10-10-10-10-|
|
| Gtr II
|    PM------------|      PM------------|
| E  S  S  S  S  S  S  E  S  S  S  S  S  S
|------------------------------------------|
|------------------------------------------|
|------------------------------------------|
|------------------------------------------|
|-9-------------------12-------------------|
|---10-10-10-10-10-10----10-10-10-10-10-10-|


                                           Q=106
      PM------------|     PM------------|    ~~~~~~~~~~~~~~~
   E  S  S  S  S  S  S E  S  S  S  S  S  S   W          +H      E  Q.
|------------------------------------------|----------|-----------------|
|------------------------------------------|----------|-----------------|
|------------------------------------------|----------|-----------------|
|------------------------------------------|-9--------|-(9)-------------|
|-10-------------------9-------------------|----------|-----------------|
|----10-10-10-10-10-10---10-10-10-10-10-10-|----------|--------12s15\---|
|
|     PM------------|     PM------------|    ~~~~~~~~~~~~~~~
|  E  S  S  S  S  S  S E  S  S  S  S  S  S   W          +H      E  Q.
|------------------------------------------|----------|-----------------|
|------------------------------------------|-7--------|-(7)-------------|
|------------------------------------------|----------|-----------------|
|------------------------------------------|----------|-----------------|
|-10-------------------9-------------------|----------|-----------------|
|----10-10-10-10-10-10---10-10-10-10-10-10-|----------|--------12s15\---|


   Chorus
    E5   C5     G5   A5       E5      C5     E5      D5
                                    PM             PM            ~~~
    H    H      Q  E E H      Q  Q  E Q.     Q  Q  E  E     +S  +E.
||------------|-------------|--------------|-------------------------|
||o-----------|-------------|--------------|-------------------------|
||-------5----|-------------|---------5----|-------------------------|
||--2----5----|-5--5s7-7----|-2--2----5----|-2--2--------------------|
||o-2----3----|-5--5s7-7----|-2--2----3----|-2--2----[5]b7==(5)r(5)--|
||--0---------|-3--3s5-5----|-0--0--0------|-0--0--0-----------------|
|
|                                   PM             PM
|   H    H      Q  E E H      Q  Q  E Q.     Q  Q  E  Q.
||------------|-------------|--------------|-------------------------|
||o-----------|-------------|--------------|-------------------------|
||-------5----|-------------|---------5----|----------7--------------|
||--2----5----|-5--5s7-7----|-2--2----5----|-2--2-----7--------------|
||o-2----3----|-5--5s7-7----|-2--2----3----|-2--2-----5--------------|
||--0---------|-3--3s5-5----|-0--0--0------|-0--0--0-----------------|


  E5         C5     G5   A5       E5      C5     E5      D5
                                        PM             PM
  Q   E   E  H      Q  E E H      Q  Q  E Q.     Q  Q  E Q.
|-----0-----------|-------------|--------------|---------------||
|---------0-------|-------------|--------------|--------------o||
|------------5----|-------------|---------5----|---------7-----||
|-2--(2)-(2)-5----|-5--5s7-7----|-2--2----5----|-2--2----7-----||
|-2--(2)-(2)-3----|-5--5s7-7----|-2--2----3----|-2--2----5----o||
|-0--(0)-(0)------|-3--3s5-5----|-0--0--0------|-0--0--0-------||
|
|                                       PM             PM
| H          H      Q  E E H      Q  Q  E Q.     Q  Q  E Q.
|-----------------|-------------|--------------|---------------||
|-----------------|-------------|--------------|--------------o||
|------------5----|-------------|---------5----|---------7-----||
|-2----------5----|-5--5s7-7----|-2--2----5----|-2--2----7-----||
|-2----------3----|-5--5s7-7----|-2--2----3----|-2--2----5----o||
|-0---------------|-3--3s5-5----|-0--0--0------|-0--0--0-------||


                            Bridge
                          E=240
  E5   C5     G5   A5     N.C.
                            5/8     6/8
  Gtrs I, II
  H    H      Q  E E H       W       W        W
|-----------|-------------||-------|--------|------|
|-----------|-------------||-------|--------|------|
|------5----|-------------||-------|--------|------|
|-2----5----|-5--5s7-7----||-------|--------|------|
|-2----3----|-5--5s7-7----||-------|--------|------|
|-0---------|-3--3s5-5----||-------|--------|------|


   5/8           6/8
    Gtr I
    PM
    E E E   E E   E E E E E E   E E E E E E  4x
||--------------|-------6-----|-----5--------||
||o-------------|-------------|-------------o||
||------9-/10---|-----8---8---|---7---7---7--||
||----7-------8-|---6-------6-|-5-------5----||
||o-5-----------|-6-----------|-------------o||
||--------------|-------------|--------------||
|
|   Gtr II
|   PM|
|   E E E   E E   E E E E E E   E E E E E E  4x
||--------------|-------------|--------------||
||o-------------|-------------|-------------o||
||--------------|-------8-----|-----7--------||
||------7--/8---|-----6---6---|---5---5---5--||
||o---5-------6-|---4-------4-|-3-------3---o||
||--3-----------|-4-----------|--------------||


  Q=192
 4/4
  Gtrs I, II
  PM|   PM  PM   PM    PM  PM  PM   PM----|   PM  PM   PM     PM  PM  PM ~~
  E E E E E E  E E   E E E E E E  E E   E E E E E E  E E    E E E E E E  Q
|------------------|------------------|------------------|------------------|
|------------------|------------------|------------------|------------------|
|------------------|-9---7------------|------------------|-10---9-----------|
|-----7---9---10---|---------9---10---|-----7---9---10---|----------9---10--|
|-0-0---0---0----0-|---0---0---0----0-|-0-0---0---0----0-|----0---0---0-----|
|------------------|------------------|------------------|------------------|


  PM|   PM   PM   PM     PM   PM  PM   PM-
  E E E E  E E  E E    E E  E E E E  E E
|-------------------|--------------------|
|-------------------|--------------------|
|-------------------|-12---10---9--------|
|-----9---10---12---|---------------10---|
|-8-8---8----8----8-|----8----8---8----8-|
|-------------------|--------------------|


 ---|   PM   PM   PM     PM  PM  PM ~~
  E E E E  E E  E E    E E E E E E  Q
|-------------------|------------------|
|-------------------|------------------|
|-------------------|-10---9-----------|
|-----9---10---12---|----------9---10--|
|-8-8---8----8----8-|----8---8---8-----|
|-------------------|------------------|


   Verse
    PM------------|     ~    PM------------|       ~~
    S S S S S S S S E E Q    S S S S S S S S E  E  Q
||-------------------------|--------------------------|
||o------------------------|--------------------------|
||-------------------------|--------------------------|
||------------------7h9-9--|-----------------9h10-10--|
||o-0-0-0-0-0-0-0-0--------|-0-0-0-0-0-0-0-0----------|
||-------------------------|--------------------------|


  PM------------|        ~~   PM------------|        ~~
  S S S S S S S S  E  E  Q    S S S S S S S S  E  E  Q
|---------------------------|-----------------------------|
|---------------------------|-----------------------------|
|---------------------------|-----------------------------|
|-----------------10h12-12--|-----------------12p10-10----|
|-0-0-0-0-0-0-0-0-----------|-0-0-0-0-0-0-0-0-------------|
|---------------------------|-----------------------------|


  PM------------|       ~~   PM------------|        ~~
  S S S S S S S S E  E  Q    S S S S S S S S  E  E  Q
|--------------------------|---------------------------|
|--------------------------|---------------------------|
|--------------------------|---------------------------|
|-----------------9h10-10--|-----------------10h12-12--|
|-8-8-8-8-8-8-8-8----------|-8-8-8-8-8-8-8-8-----------|
|--------------------------|---------------------------|


                     To Coda
  PM------------|        ~~   PM------------|      ~
  S S S S S S S S  E  E  Q    S S S S S S S S  E E Q
|---------------------------|----------------------------||
|---------------------------|---------------------------o||
|-----------------10h12-12--|-----------------10p9-9-----||
|---------------------------|----------------------------||
|-8-8-8-8-8-8-8-8-----------|-8-8-8-8-8-8-8-8-----------o||
|---------------------------|----------------------------||


  Q=128
                  Bb5                   F5            C5
 3/4                                         2/4
  PM------------|       PM------------|       PM----|
  S S S S S S S S  Q    S S S S S S S S  Q    S S S S  Q
|---------------------|---------------------|-------------|
|---------------------|---------------------|-------------|
|-----------------10--|---------------------|---------12--|
|------------------8--|-----------------10--|---------10--|
|-0-0-0-0-0-0-0-0-----|-0-0-0-0-0-0-0-0--8--|-0-0-0-0-----|
|---------------------|---------------------|-------------|


                  E5
 3/4                                       2/4
  Gtr II
  PM------------|      PM------------|      PM----|
  S S S S S S S S Q    S S S S S S S S Q    S S S S Q
|--------------------|--------------------|-------------------|
|--------------------|--------------------|-------------------|
|-----------------9--|-----------------9--|---------9---------|
|-----------------7--|-----------------7--|---------7---------|
|-0-0-0-0-0-0-0-0----|-0-0-0-0-0-0-0-0----|-0-0-0-0-----------|
|--------------------|--------------------|-------------------|
|
| Gtr I
| PM------------|      PM------------|      PM----|
| S S S S S S S S Q    S S S S S S S S Q    S S S S E.  T  T
|--------------------|--------------------|------------19-20--|
|--------------------|--------------------|-------------------|
|-----------------9--|-----------------9--|-------------------|
|-----------------7--|-----------------7--|-------------------|
|-0-0-0-0-0-0-0-0----|-0-0-0-0-0-0-0-0----|-0-0-0-0-----------|
|--------------------|--------------------|-------------------|
|
| Gtr III
| W                    W                    Q       E.  T  T
|--------------------|--------------------|------------12-13--|
|--------------------|--------------------|-------------------|
|--------------------|--------------------|-------------------|
|--------------------|--------------------|-------------------|
|--------------------|--------------------|-------------------|
|--------------------|--------------------|-------------------|


 Solo (Schuldiner)
                                                  Bb5
 3/4
   PM---------------------------------------|
   S     S     S     S     S     S     S     S     Q
|-------------------------------------------------------------------------|
|-------------------------------------------------------------------------|
|-------------------------------------------------10----------------------|
|--------------------------------------------------8----------------------|
|--0-----0-----0-----0-----0-----0-----0-----0----------------------------|
|-------------------------------------------------------------------------|
|
|  T  T  T  T  T  T  T  T  T  T  T  T  T  T  T  T  T  T  T  T  T  T  T  T
|-24-20-19-24-20-19-------------------19-20-24-20-19-24-20-19-------------|
|-------------------19-20-19-20-19-20-------------------------19-20-19-20-|
|-------------------------------------------------------------------------|
|-------------------------------------------------------------------------|
|-------------------------------------------------------------------------|
|-------------------------------------------------------------------------|
|
|  T  T  T  T  T  T  T  T  T  T  T  T  T  T  T  T  T  T  T  T  T  T  T  T
|-17-13-12-17-13-12-------------------12-13-17-13-12-17-13-12-------------|
|-------------------12-13-12-13-12-13-------------------------12-13-12-13-|
|-------------------------------------------------------------------------|
|-------------------------------------------------------------------------|
|-------------------------------------------------------------------------|
|-------------------------------------------------------------------------|


                                                  F5
   PM---------------------------------------|
   S     S     S     S     S     S     S     S     Q
|-------------------------------------------------------------------------|
|-------------------------------------------------------------------------|
|-------------------------------------------------------------------------|
|-------------------------------------------------10----------------------|
|--0-----0-----0-----0-----0-----0-----0-----0-----8----------------------|
|-------------------------------------------------------------------------|
|
|  T  T  T  T  T  T  T  T  T  T  T  T  T  T  T  T  T  T  T  T  T  T  T  T
|-------------------19-20-24-20-19-24-20-19-------------------19-20-24-20-|
|-19-20-19-20-19-20-------------------------19-20-19-20-19-20-------------|
|-------------------------------------------------------------------------|
|-------------------------------------------------------------------------|
|-------------------------------------------------------------------------|
|-------------------------------------------------------------------------|
|
|  T  T  T  T  T  T  T  T  T  T  T  T  T  T  T  T  T  T  T  T  T  T  T  T
|-------------------12-13-17-13-12-17-13-12-------------------12-13-17-13-|
|-12-13-12-13-12-13-------------------------12-13-12-13-12-13-------------|
|-------------------------------------------------------------------------|
|-------------------------------------------------------------------------|
|-------------------------------------------------------------------------|
|-------------------------------------------------------------------------|


                          C5
 2/4
   PM---------------|
   S     S     S     S     Q
|-------------------------------------------------|
|-------------------------------------------------|
|-------------------------12----------------------|
|-------------------------10----------------------|
|--0-----0-----0-----0----------------------------|
|-------------------------------------------------|
|
|  T  T  T  T  T  T  T  T  T  T  T  T  T  T  T  T
|-19-24-20-19-------------------------------19-20-|
|-------------19-20-19-20-19-20-19-20-19-20-------|
|-------------------------------------------------|
|-------------------------------------------------|
|-------------------------------------------------|
|-------------------------------------------------|
|
|  T  T  T  T  T  T  T  T  T  T  T  T  T  T  T  T
|-12-17-13-12-------------------------------12-13-|
|-------------12-13-12-13-12-13-12-13-12-13-------|
|-------------------------------------------------|
|-------------------------------------------------|
|-------------------------------------------------|
|-------------------------------------------------|


                                        E5
 3/4
   PM-----------------------------|
   S   S S S     S     S     S     S     Q
|------------------------------------------------|
|------------------------------------------------|
|----------------------------------------9-------|
|----------------------------------------7-------|
|--0---0-0-0-----0-----0-----0-----0-------------|
|------------------------------------------------|
|
|  TP                                    TP
|  E..        T  T  T  T  T  T  T  T  T  E..  T
|-24---------19-20-19-20-19-20-19-20-19-24---19--|
|------------------------------------------------|
|------------------------------------------------|
|------------------------------------------------|
|------------------------------------------------|
|------------------------------------------------|
|
|  TP                                    TP
|  E..        T  T  T  T  T  T  T  T  T  E..  T
|-17---------12-13-12-13-12-13-12-13-12-17---12--|
|------------------------------------------------|
|------------------------------------------------|
|------------------------------------------------|
|------------------------------------------------|
|------------------------------------------------|


   PM-------------------------------|
   S     S     S     S     S S   S  S   Q
|--------------------------------------------|
|--------------------------------------------|
|---------------------------------------9----|
|---------------------------------------7----|
|--0-----0-----0-----0-----0-0---0--0--------|
|--------------------------------------------|
|
|                          TP    TP     TP
|  T  T  T  T  T  T  T  T  E    +E      Q
|-20-19-20-19-20-19-20-19-17---(17)S===19----|
|--------------------------------------------|
|--------------------------------------------|
|--------------------------------------------|
|--------------------------------------------|
|--------------------------------------------|
|
|  T  T  T  T  T  T  T  T  Q           +Q
|-13-12-13-12-13-12-13-12--------------------|
|-------------------------15----------(15)\--|
|--------------------------------------------|
|--------------------------------------------|
|--------------------------------------------|
|--------------------------------------------|


                                                   Bb5
 2/4                  3/4
   PM--------|          PM-----------------------|
   S     S S S   Q      S     S     S  S  S S  S S  Q
|--------------------|------------------------------------|
|--------------------|------------------------------------|
|----------------9---|-----------------------------10-----|
|----------------7---|------------------------------8-----|
|--0-----0-0-0-------|--0-----0-----0--0--0-0--0-0--------|
|--------------------|------------------------------------|
|
|  TP            TP
|  Q            +Q      T  T  T  T  S  S  e    e    e  e
|-19b20========(19)--|-19-19-19-19-19-19-19---19---19-19--|
|--------------------|------------------------------------|
|--------------------|------------------------------------|
|--------------------|------------------------------------|
|--------------------|------------------------------------|
|--------------------|------------------------------------|
|
|  W                    W
|--------------------|------------------------------------|
|--------------------|------------------------------------|
|--------------------|------------------------------------|
|--------------------|------------------------------------|
|--------------------|------------------------------------|
|--------------------|------------------------------------|


                       F5               C5                           E5
                             2/4                  3/4
  Gtr II
   PM----------------|         PM-----|             PM-------------|
   S   S  S  S S S S S   Q     S S  S S  Q          S  S S S S S S S Q
|---------------------------|--------------------|---------------------------|
|---------------------------|--------------------|---------------------------|
|---------------------------|-----------12-------|-------------------9-------|
|-----------------------10--|-----------10-------|-------------------7-------|
|--0---0--0--0-0-0-0-0---8--|--0-0--0-0----------|--0--0-0-0-0-0-0-0---------|
|---------------------------|--------------------|---------------------------|
|
| Gtr I
|                                                      ~~~~~~~~~~~~~~~~~~~~~
|  S   S  Q.             Q     e    e    e  S  S    S  H                +E.
|-19r-19-19-----------------|--------------------|---------------------------|
|---------------------------|--------------------|---------------------------|
|----------------------/17--|-17---17---17-17-17-|-16-16---------------(16)--|
|---------------------------|--------------------|---------------------------|
|---------------------------|--------------------|---------------------------|
|---------------------------|--------------------|---------------------------|


   PM---------------------------------------|
   S     S     S     S     S     S     S     S     Q
|-------------------------------------------------------------------------|
|-------------------------------------------------------------------------|
|--------------------------------------------------9----------------------|
|--------------------------------------------------7----------------------|
|--0-----0-----0-----0-----0-----0-----0-----0----------------------------|
|-------------------------------------------------------------------------|
|
|  T  T  T  T  T  T  T  T  T  T  T  T  T  T  T  T  T  T  T  T  T  T  T  T
|-------------------------------------------------------------------------|
|----------------------------15-15-15-------------------------------------|
|-14-14-14-16-16-16-14-14-14----------17-17-17-17-16-16-17-17-16h17p16-14-|
|-------------------------------------------------------------------------|
|-------------------------------------------------------------------------|
|-------------------------------------------------------------------------|


 2/4
   PM----|
   S S S S Q
|-------------|
|-------------|
|----------9--|
|----------7--|
|--0-0-0-0----|
|-------------|
|
|  ~~
|  H
|-------------|
|-------------|
|-16----------|
|-------------|
|-------------|
|-------------|


                                   Bb5
 3/4
  PM--------------------------|
  S  S     S    S    S S    S S     Q
|------------------------------------------|
|------------------------------------------|
|----------------------------------10------|
|-----------------------------------8------|
|-0--0-----0----0----0-0----0-0------------|
|------------------------------------------|
|
| S  T  T  T  s    e      e      S     +E..
|---17h19p17------17-----19-----19----(19)S|
|------------18----------------------------|
|------------------------------------------|
|------------------------------------------|
|------------------------------------------|
|------------------------------------------|


                              F5                      C5
                                        2/4
   PM--------------------|                 PM-------|
   S S S S S  S     S    S     Q           S  S  S  S  Q
|--------------------------------------|------------------|
|--------------------------------------|------------------|
|--------------------------------------|--------------12--|
|-----------------------------10-------|--------------10--|
|--0-0-0-0-0--0-----0----0-----8-------|---0--0--0--0-----|
|--------------------------------------|------------------|
|
|  Q       S  T  T  T  s    e     e  T    +E     Q.
|-20---------19h20p19------19----20-20-|-(20)S==22--------|
|---------------------20---------------|------------------|
|--------------------------------------|------------------|
|--------------------------------------|------------------|
|--------------------------------------|------------------|
|--------------------------------------|------------------|


                       E5
 3/4                                                       2/4
  Gtr II
   PM----------------|        PM--------------|              PM----|
   S     S S S S S S S Q      S  S S S  S S S   S   Q        S S S S Q
|-------------------------|-------------------------------|-------------|
|-------------------------|-------------------------------|-------------|
|----------------------9--|-------------------------9-----|----------9--|
|----------------------7--|-------------------------7-----|----------7--|
|--0-----0-0-0-0-0-0-0----|---0--0-0-0--0-0-0---0---------|--0-0-0-0----|
|-------------------------|-------------------------------|-------------|
|
| Gtr I
|                                                            ~~
|  H.                        +Q         E.     +S   S  E.    H
|-24b27===================|=(24)-------24r====(24)--------|-------------|
|-------------------------|------------------------15s17--|-17----------|
|-------------------------|-------------------------------|-------------|
|-------------------------|-------------------------------|-------------|
|-------------------------|-------------------------------|-------------|
|-------------------------|-------------------------------|-------------|
|
| Gtr III
|                                                            ~~
|  W                          H                     S  E.    H
|-------------------------|-------------------------------|-------------|
|-------------------------|-------------------------------|-------------|
|-------------------------|------------------------12s14--|-14----------|
|-------------------------|-------------------------------|-------------|
|-------------------------|-------------------------------|-------------|
|-------------------------|-------------------------------|-------------|


 Solo (Hamm)
  C#5                         F#5
 4/4
  Gtr I
    W                          W
|---------------------------|--------------------|
|---------------------------|--------------------|
|---6-----------------------|--------------------|
|---6-----------------------|--4-----------------|
|---4-----------------------|--4-----------------|
|---------------------------|--2-----------------|
|
| Gtr II
|   ~~~~~~~~~~~                ~~~~~~~~~~
|                   |--3--|
|   H      +E   Q   S  S  S    H     +E   Q    E
|---------------------------|--------------------|
|-[14]----(14)-15--14h15p14-|--------------------|
|---------------------------|-11----(11)-13--/14-|
|---------------------------|--------------------|
|---------------------------|--------------------|
|---------------------------|--------------------|
|
| Gtr III
|   ~~~~~~~~~~~                ~~~~~~~~~~
|                   |--3--|
|   H      +E   Q   S  S  S    H     +E   Q    E
|--16-----(16)-17--16h17p16-|--------------------|
|---------------------------|--------------------|
|---------------------------|-14----(14)-16--/18-|
|---------------------------|--------------------|
|---------------------------|--------------------|
|---------------------------|--------------------|


  A5                E5
   W                 W
|-----------------|---------------------|
|-----------------|---------------------|
|--2--------------|---------------------|
|--2--------------|--2------------------|
|--0--------------|--2------------------|
|-----------------|--0------------------|
|
|  ~~                               ~~
|        |--3--|     |--3--|  |--3--|
|  H     Q  Q  Q     Q  Q  Q  Q  Q  Q
|-----------------|---------------------|
|-------------12--|-14-15-14-12---------|
|-13----13-14-----|-------------14-13---|
|-----------------|---------------------|
|-----------------|---------------------|
|-----------------|---------------------|
|
|  ~~                               ~~
|        |--3--|     |--3--|  |--3--|
|  H     Q  Q  Q     Q  Q  Q  Q  Q  Q
|-------------14--|-16-17-16-14---------|
|-------16-17-----|-------------17-14---|
|-16--------------|---------------------|
|-----------------|---------------------|
|-----------------|---------------------|
|-----------------|---------------------|


  C#5
    W
|--------------------------------------------------------------|
|--------------------------------------------------------------|
|---6----------------------------------------------------------|
|---6----------------------------------------------------------|
|---4----------------------------------------------------------|
|--------------------------------------------------------------|
|
|   ~~~~
|  +H           T  T  T  T  T  T  T  T  T  T  T  T  T  T  T  T
|--------------------------------------------------------------|
|--------------14h15p14----14-14-15-15-14-14-15-15-17-17-15-15-|
|-(13)------------------16-------------------------------------|
|--------------------------------------------------------------|
|--------------------------------------------------------------|
|--------------------------------------------------------------|
|
|   ~~~~~~~~~~
|  +Q    +Q     H
|--------------------------------------------------------------|
|-(14)--(14)\--------------------------------------------------|
|--------------------------------------------------------------|
|--------------------------------------------------------------|
|--------------------------------------------------------------|
|--------------------------------------------------------------|


  F#5
   W
|-------------------------------------------------------------------------------------------------|
|-------------------------------------------------------------------------------------------------|
|-------------------------------------------------------------------------------------------------|
|--4----------------------------------------------------------------------------------------------|
|--4----------------------------------------------------------------------------------------------|
|--2----------------------------------------------------------------------------------------------|
|
|  T  T  T  T  T  T  T  T  T  T  T  T  T  T  T  T  T  T  T  T  T  T  T  T  T  T  T  T  T 
T  T  T
|-------14-14-------14-14-16-16-14-14-16-16-17-17-16-16-17-17-19-19-17-17-19-19-21-21-19-19-21-21-|
|-17-17-------17-17-------------------------------------------------------------------------------|
|-------------------------------------------------------------------------------------------------|
|-------------------------------------------------------------------------------------------------|
|-------------------------------------------------------------------------------------------------|
|-------------------------------------------------------------------------------------------------|
|
|  W
|-------------------------------------------------------------------------------------------------|
|-------------------------------------------------------------------------------------------------|
|-------------------------------------------------------------------------------------------------|
|-------------------------------------------------------------------------------------------------|
|-------------------------------------------------------------------------------------------------|
|-------------------------------------------------------------------------------------------------|


  A5                                                                                 E5
  Gtr I
   H..                                                                                E
|-------------------------------------------------------------------------------------------||
|-------------------------------------------------------------------------------------------||
|--2----------------------------------------------------------------------------------------||
|--2----------------------------------------------------------------------------------2-----||
|--0----------------------------------------------------------------------------------2-----||
|-------------------------------------------------------------------------------------0-----||
|
| Gtr II
|  T    T  T  T  T  T  T  T  T  T  T  T  T  T  T  T  T  T  T  T  T  T  T  T  T  T  S  E
|-19---19-21-21-22-22-21-21-22-22-21-21-22-22-21-21-22-22-24-24-22-22-24-24-22-22-24-24b26==||
|-------------------------------------------------------------------------------------------||
|-------------------------------------------------------------------------------------------||
|-------------------------------------------------------------------------------------2-----||
|-------------------------------------------------------------------------------------2-----||
|-------------------------------------------------------------------------------------0-----||


 Bridge
                N.C.
                  PM------------|     ~
   +Q             E    S    S   E E E E
|-----------------------------------------|
|-----------------------------------------|
|-----------------------------------------|
|--(2)------------------------------9-----|
|--(2)----------------------------7---7---|
|--(0)------------0----0----0---0---------|
|
|                 PM------------|     ~
|  +E   +E        E    S    S   E E E E
|-(24)r(24)b26==(24)r(24)-(24)\-----------|
|-----------------------------------------|
|-----------------------------------------|
|--(2)--(2)-------------------------9-----|
|--(2)--(2)-----------------------7---7---|
|--(0)--(0)-------0----0----0---0---------|


  Gtrs I, II
   ~~~ PM----|      ~~~~~~~~ PM----|        ~~~
  +Q   E S S E E  E E   +Q   E S S E  E  E  E
|---------------------|-----------------------|
|---------------------|-----------------------|
|---------------------|-----------------------|
|----------------10---|-----------------12----|
|-(7)----------8----8-|-(8)----------10----10-|
|------0-0-0-0--------|------0-0-0-0----------|


                              E5
 ~~~~~~ PM----|      ~~~~~~~~ PM--|
   +Q   E S S E E  E E   +Q   E S S E E S S E
|----------------------|-----------------------|
|----------------------|-----------------------|
|----------------------|-----------------------|
|-----------------10---|------9-9-9-9-9-----9--|
|-(10)----------8----8-|-(8)--7-7-7-7-7-----7--|
|-------0-0-0-0--------|------0-0-0-0-0-0-0----|


        PM----|     ~~~~~~~~ PM----|      ~~~~~~~~ PM----|        ~~~
  +Q    E S S E E E E   +Q   E S S E E  E E   +Q   E S S E  E  E  E
|---------------------|---------------------|-----------------------|
|---------------------|---------------------|-----------------------|
|---------------------|---------------------|-----------------------|
|-(9)\------------9---|----------------10---|-----------------12----|
|-(7)\----------7---7-|-(7)----------8----8-|-(8)----------10----10-|
|-------0-0-0-0-------|------0-0-0-0--------|------0-0-0-0----------|


 ~~~~~~ PM----|      ~~~~~~~~ PM--|
   +Q   E S S E E  E E   +Q   E S S E E S S E
|----------------------|----------------------|
|----------------------|----------------------|
|----------------------|----------------------|
|-----------------10---|------9-9-9-9-9-----9-|
|-(10)----------8----8-|-(8)--7-7-7-7-7-----7-|
|-------0-0-0-0--------|------0-0-0-0-0-0-0---|


        N.C.
  Gtr I
        PM----|      ~~~~~~~~ PM----|        ~~~~~~~~~ PM----|        ~~~
  +Q    E S S E E  E E   +Q   E S S E  E  E  E    +Q   E S S E  E  E  E
|----------------------|-----------------------|------------------------|
|----------------------|-----------------------|------------------------|
|----------------------|-----------------------|------------------------|
|-(9)\-------------9---|-----------------10----|------------------12----|
|-(7)\----------7----7-|-(7)-----------8-----8-|--(8)----------10----10-|
|-------0-0-0-0--------|------0-0-0-0----------|-------0-0-0-0----------|
|
| Gtr II
|       PM----|      ~~~~~~~~ PM----|        ~~~~~~~~~ PM----|        ~~~
| +Q    E S S E E  E E   +Q   E S S E  E  E  E    +Q   E S S E  E  E  E
|----------------------|-----------------------|------------------------|
|----------------------|-----------------------|------------------------|
|-----------------11---|-----------------12----|------------------14----|
|-(9)\----------9----9-|-(9)----------10----10-|-(10)----------12----12-|
|-(7)\-----------------|-----------------------|------------------------|
|-------0-0-0-0--------|------0-0-0-0----------|-------0-0-0-0----------|


                                 E5
 ~~~~~~ PM----|        ~~~~~~~~~ PM--|
   +Q   E S S E  E  E  E    +Q   E S S E E S S E
|------------------------|-----------------------|
|------------------------|-----------------------|
|------------------------|-----------------------|
|------------------10----|-------9-9-9-9-9-----9-|
|-(10)-----------8-----8-|--(8)--7-7-7-7-7-----7-|
|-------0-0-0-0----------|-------0-0-0-0-0-0-0---|
|
|~~~~~~ PM----|        ~~~~~~~~~ PM--|
|  +Q   E S S E  E  E  E    +Q   E S S E E S S E
|------------------------|-----------------------|
|------------------------|-----------------------|
|------------------12----|-----------------------|
|-(12)----------10----10-|-(10)--9-9-9-9-9-----9-|
|------------------------|-------7-7-7-7-7-----7-|
|-------0-0-0-0----------|-------0-0-0-0-0-0-0---|


        N.C.
        PM----|      ~~~~~~~~ PM----|        ~~~
  +Q    E S S E E  E E   +Q   E S S E  E  E  E
|----------------------|-----------------------|
|----------------------|-----------------------|
|----------------------|-----------------------|
|-(9)\-------------9---|-----------------10----|
|-(7)\----------7----7-|-(7)-----------8-----8-|
|-------0-0-0-0--------|------0-0-0-0----------|
|
|       PM----|      ~~~~~~~~ PM----|        ~~~
| +Q    E S S E E  E E   +Q   E S S E  E  E  E
|----------------------|-----------------------|
|----------------------|-----------------------|
|-----------------11---|-----------------12----|
|-(9)\----------9----9-|-(9)----------10----10-|
|-(7)\-----------------|-----------------------|
|-------0-0-0-0--------|------0-0-0-0----------|


                                   Ending (Coda)
                                 Q=192
               D.S. al Coda      &
                          1/4      4/4
 ~~~~~~ PM----|        ~~~~~~~~~    PM------------|       ~~~
   +Q   E S S E  E  E  E    +Q      S S S S S S S S  E E  Q
|------------------------|-------||----------------------------*|
|------------------------|-------||----------------------------*|
|------------------------|-------||-----------------10p9-[9]---*|
|------------------12----|-------||----------------------------*|
|--(8)----------10----10-|-(10)--||-8-8-8-8-8-8-8-8------------*|
|-------0-0-0-0----------|-------||----------------------------*|
|
|~~~~~~ PM----|        ~~~~~~~~~    PM------------|       ~~~
|  +Q   E S S E  E  E  E    +Q      S S S S S S S S  E E  Q
|------------------------|-------||----------------------------*|
|------------------------|-------||----------------------------*|
|------------------14----|-------||-----------------10p9-[9]---*|
|-(10)----------12----12-|-(12)--||----------------------------*|
|------------------------|-------||-8-8-8-8-8-8-8-8------------*|
|-------0-0-0-0----------|-------||----------------------------*|

Duration Legend
---------------
W - whole; H - half; Q - quarter; E - 8th; S - 16th; T - 32nd; X - 64th; a - acciaccatura
+ - note tied to previous; . - note dotted; .. - note double dotted
Uncapitalized letters represent notes that are staccato (1/2 duration)
Irregular groupings are notated above the duration line
Duration letters will always appear directly above the note/fret number it represents the
duration for.  Duration letters with no fret number below them represent rests.  Multi-
bar rests are notated in the form Wxn, where n is the number of bars to rest for.  Low
melody durations appear below the staff

Tablature Legend
----------------
 h   - hammer-on
 p   - pull-off
 b   - bend
 pb  - pre-bend
 r   - bend release (if no number after the r, then release immediately)
 /\  - slide into or out of (from/to "nowhere")
 s   - legato slide
 S   - shift slide
 - natural harmonic
[n]  - artificial harmonic
n(n) - tapped harmonic
 ~   - vibrato
 tr  - trill
 T   - tap
 TP  - trem. picking
 PM  - palm muting
\n/  - tremolo bar dip; n = amount to dip
 \n  - tremolo bar down
 n/  - tremolo bar up
/n\  - tremolo bar inverted dip
 =   - hold bend; also acts as connecting device for hammers/pulls
 <> - volume swell (louder/softer)
 x   - on rhythm slash represents muted slash
 o   - on rhythm slash represents single note slash

Misc Legend
-----------
 |  - bar
||  - double bar
||o - repeat start
o|| - repeat end
*|  - double bar (ending)
 :  - bar (freetime)
 $  - Segno
 &  - Coda
Tempo markers -  = BPM(8/16=s8/s16), where s8 = swing 8ths, s16 = swing 16ths
Suggest correction
Give kudos to tab author, rate the tab!
1 2 3 4 5
comments
print report bad tab
guest
You may want to rate the tab now too:
select rating
Wanna post a correction for this tab? Suggest correction