Oops, an error
Loading. Please wait.
We have an official Spirit Crusher tab made by UG professional guitarists. Check out the tab »
×
by Death
1,657 views 1 this week
no commentswrite comment
1 2 3 4 5
2 more votes to show rating
add to favorites
×
Save as Personal and add changes to this tab that will be seen only by you. Learn more ›
×
You can save this tab as Personal to edit and correct it or add notes. All changes will be seen only by you. Learn more »
launch autoscroll
font size
0
reset
guitar tuner
backing track
0:00
0:00
edit
Autoscroll
slow
fast
+/-
esc
set tempo
stop
DEATH
Spirit Crusher



                                                         
F||-----------------------|-----------------------------|
C||--------4--------------|--------4--------------------|
G||-----2--------2-----3--|-----2--------2-----3--6-----|
D||--0--------3-----1-----|--0--------3-----1--------4--|
A||-----------------------|-----------------------------|


                                                                              
-----------------------|-----------------------------|-----------------------|
--------4--------------|--------4--------------------|--------4--------------|
-----2--------2-----3--|-----2--------2-----3--6-----|-----2--------2-----3--|
--0--------3-----1-----|--0--------3-----1--------4--|--0--------3-----1-----|
-----------------------|-----------------------------|-----------------------|


                                                      
-----------------------------|-----------------------|
--------4--------------------|--------4--------------|
-----2--------2-----3--6-----|-----2--------2-----3--|
--0--------3-----1--------4--|--0--------3-----1-----|
-----------------------------|-----------------------|


                                                                        
-----------------------------|--------------------|--------------------|
--------4--------------------|--------8--9--------|--------8--9--------|
-----2--------2-----3--6-----|-----6--------7-----|-----6--------7-----|
--0--------3-----1--------4--|--4--------------5--|--4--------------5--|
-----------------------------|--------------------|--------------------|


                                                               
--------------------|--------------------|--------------------|
--------8--9--------|--------8--9--------|--------8--9--------|
-----6--------7-----|-----6--------7-----|-----6--------7-----|
--4--------------5--|--4--------------5--|--4--------------5--|
--------------------|--------------------|--------------------|


                                                               
--------------------|--------------------|--------------------|
--------8--9--------|--------8--9--------|--------8--9--------|
-----6--------7-----|-----6--------7-----|-----6--------7-----|
--4--------------5--|--4--------------5--|--4--------------5--|
--------------------|--------------------|--------------------|


                                                               
--------------------|--------------------|--------------------|
--------8--9--------|--------8--9--------|--------8--9--------|
-----6--------7-----|-----6--------7-----|-----6--------7-----|
--4--------------5--|--4--------------5--|--4--------------5--|
--------------------|--------------------|--------------------|


                                                               
--------------------|--------------------|--------------------|
--------8--9--------|--------8--9--------|--------8--9--------|
-----6--------7-----|-----6--------7-----|-----6--------7-----|
--4--------------5--|--4--------------5--|--4--------------5--|
--------------------|--------------------|--------------------|


                                                                 
--------------------|--------------------|----------------------|
--------8--9--------|--------8--9--------|----------------------|
-----6--------7-----|-----6--------7-----|--7---------9---------|
--4--------------5--|--4--------------5--|-----0-0-0-----0-0-0--|
--------------------|--------------------|----------------------|


                                                                       
-----------------------|----------------------|-----------------------|
-------------9---------|--7-------------------|-----------------------|
--10-------------------|------------9---------|--10---------9---------|
------0-0-0-----0-0-0--|-----0-0-0-----0-0-0--|------0-0-0-----0-0-0--|
-----------------------|----------------------|-----------------------|


                                                                  
----------------------|----------------------|-------------------|
----------------------|----------------------|-------------------|
--5---------7---------|--9---------5---------|--7~---------------|
-----0-0-0-----0-0-0--|-----0-0-0-----0-0-0--|---------0--0-0-0--|
----------------------|----------------------|-------------------|


                                                                     
---------------------|----------------------|-----------------------|
---------------------|----------------------|-------------9---------|
---------------------|--7---------9---------|--10-------------------|
--0--0--0--0-0-0--0--|-----0-0-0-----0-0-0--|------0-0-0-----0-0-0--|
---------------------|----------------------|-----------------------|


                                                                      
----------------------|-----------------------|----------------------|
--7-------------------|-----------------------|----------------------|
------------9---------|--10---------9---------|--5---------7---------|
-----0-0-0-----0-0-0--|------0-0-0-----0-0-0--|-----0-0-0-----0-0-0--|
----------------------|-----------------------|----------------------|


                                                                 
----------------------|-------------------|---------------------|
----------------------|-------------------|---------------------|
--9---------5---------|--7~---------------|---------------------|
-----0-0-0-----0-0-0--|---------0--0-0-0--|--0--0--0--0-0-0--0--|
----------------------|-------------------|---------------------|


                                                                          
----------------------|-----------------------|--------------------------|
----------------------|-----------------------|--------------------------|
--7---------9---------|--10---------9---------|--7-----------9-----------|
-----6-6-6-----6-6-6--|------6-6-6-----6-6-6--|-----7--7--7-----7--7--7--|
----------------------|-----------------------|--------------------------|


                                                       
---------------------------|--------------------------|
---------------------------|--------------------------|
--10-----------9-----------|--7-----------9-----------|
------7--7--7-----7--7--7--|-----8--8--8-----8--8--8--|
---------------------------|--------------------------|


                                                              
---------------------------|---------------------------------|
---------------------------|---------------------------------|
--10-----------9-----------|--9--------------12--------------|
------8--8--8-----8--8--8--|-----10--10--10------10--10--10--|
---------------------------|---------------------------------|


                                                                         
---------------------------------|-------------------|------------------|
---------------------------------|-------------------|------------------|
--10--------------7--------------|--2----------------|------------------|
------10--10--10-----7-8-7-8-7-8-|-------------------|------------------|
---------------------------------|-------------------|------------------|


                                                                  
--------------------|----------------------|---------------------|
--2-----------------|--5----5/-7--7--------|--2----2-------------|
-----------3--------|----------------------|--------------3------|
--0-----------------|--3----3/-5--5--------|--0----0-------------|
-----------1--------|----------------------|--------------1------|


                                                                  
--------------7------|--------------------|----------------------|
--2----2-------------|--2-----------------|--5----5/-7--7--------|
--------------5------|-----------3--------|----------------------|
--0----0-------------|--0-----------------|--3----3/-5--5--------|
---------------------|-----------1--------|----------------------|


                                                                 
---------------------|--------------7------|--------------------|
--2----2-------------|--2----2-------------|--2-----------------|
--------------3------|--------------5------|-----------3--------|
--0----0-------------|--0----0-------------|--0-----------------|
--------------1------|---------------------|-----------1--------|


                                                                   
----------------------|---------------------|--------------7------|
--5----5/-7--7--------|--2----2-------------|--2----2-------------|
----------------------|--------------3------|--------------5------|
--3----3/-5--5--------|--0----0-------------|--0----0-------------|
----------------------|--------------1------|---------------------|


                                                                  
--------------------|----------------------|---------------------|
--2-----------------|--5----5/-7--7--------|--2----2-------------|
-----------3--------|----------------------|--------------3------|
--0-----------------|--3----3/-5--5--------|--0----0-------------|
-----------1--------|----------------------|--------------1------|


                                                                  
--------------7------|--------------------|----------------------|
--2----2-------------|--2-----------------|--5----5/-7--7--------|
--------------5------|-----------3--------|----------------------|
--0----0-------------|--0-----------------|--3----3/-5--5--------|
---------------------|-----------1--------|----------------------|


                                                            
--------------------|--------8-----------|-----7-----------|
--------7--8--------|-----6-----6--------|--5-----5-----5--|
-----5--------6-----|--4-----------4--3--|-----------3-----|
--3--------------4--|--------------------|-----------------|
--------------------|--------------------|-----------------|


                                                            
--------------------|--------8-----------|-----7-----------|
--------7--8--------|-----6-----6--------|--5-----5-----5--|
-----5--------6-----|--4-----------4--3--|-----------3-----|
--3--------------4--|--------------------|-----------------|
--------------------|--------------------|-----------------|


                                                            
--------------------|--------8-----------|-----7-----------|
--------7--8--------|-----6-----6--------|--5-----5-----5--|
-----5--------6-----|--4-----------4--3--|-----------3-----|
--3--------------4--|--------------------|-----------------|
--------------------|--------------------|-----------------|


                                                            
--------------------|--------8-----------|-----7-----------|
--------7--8--------|-----6-----6--------|--5-----5-----5--|
-----5--------6-----|--4-----------4--3--|-----------3-----|
--3--------------4--|--------------------|-----------------|
--------------------|--------------------|-----------------|


                                                                               
--------------------|--------8-----------|-----7-----------|------------------|
--------7--8--------|-----6-----6--------|--5-----5-----5--|------------------|
-----5--------6-----|--4-----------4--3--|-----------3-----|------------------|
--3--------------4--|--------------------|-----------------|------------------|
--------------------|--------------------|-----------------|------------------|


                                                         
------------------|------------------|------------------|
------------------|------------------|------------------|
------------------|------------------|------------------|
------------------|------------------|------------------|
------------------|------------------|------------------|


                                                          
----------------------------|--12-----10-----9-----------|
--------9-----10-----12-----|----------------------10----|
--8--8-----8------8------8--|------8------8-----8--------|
----------------------------|----------------------------|
----------------------------|----------------------------|


                                                         
----------------------------|--10-----9-----------------|
--------9-----10-----12-----|---------------9-----10----|
--8--8-----8------8------8--|------8-----8-----8--------|
----------------------------|---------------------------|
----------------------------|---------------------------|


                                                      
-------------------------|---------------------------|
--------------7--9--9----|--------------9--10--10----|
--0--0--0--0-------------|--0--0--0--0---------------|
-------------------------|---------------------------|
-------------------------|---------------------------|


                                                          
----------------------------|----------------------------|
--------------10--12--12----|--------------12--10--10----|
--0--0--0--0----------------|--0--0--0--0----------------|
----------------------------|----------------------------|
----------------------------|----------------------------|


                                                         
---------------------------|----------------------------|
--------------9--10--10----|--------------10--12--12----|
--8--8--8--8---------------|--8--8--8--8----------------|
---------------------------|----------------------------|
---------------------------|----------------------------|


                                                        
--------------10--12--12----|--------------10--9--9----|
----------------------------|--------------------------|
--8--8--8--8----------------|--8--8--8--8--------------|
----------------------------|--------------------------|
----------------------------|--------------------------|


                                                      
-------------------------|---------------------------|
--------------7--9--9----|--------------9--10--10----|
--0--0--0--0-------------|--0--0--0--0---------------|
-------------------------|---------------------------|
-------------------------|---------------------------|


                                                          
----------------------------|----------------------------|
--------------10--12--12----|--------------12--10--10----|
--0--0--0--0----------------|--0--0--0--0----------------|
----------------------------|----------------------------|
----------------------------|----------------------------|


                                                         
---------------------------|----------------------------|
--------------9--10--10----|--------------10--12--12----|
--8--8--8--8---------------|--8--8--8--8----------------|
---------------------------|----------------------------|
---------------------------|----------------------------|


                                                                  
--------------10--12--12----|--------------10--9--9----|----|----|
----------------------------|--------------------------|----|----|
--8--8--8--8----------------|--8--8--8--8--------------|----|----|
----------------------------|--------------------------|----|----|
----------------------------|--------------------------|----|----|


                                                             
-------------------------------|----------------------------|
------------------7------------|----------7------------7----|
--0-0-0-0-0-0-0-0------0-0-0-0-|--0-0-0-0------0-0-0-0------|
-------------------------------|----------------------------|
-------------------------------|----------------------------|


                                                              
-------------------------------|-----------------------------|
------------------8------------|-----------------------10----|
--0-0-0-0-0-0-0-0------0-0-0-0-|--0-0-0-0-8----0-0-0-0-------|
-------------------------------|-----------------------------|
-------------------------------|-----------------------------|


                                                             
-------------------------------|----------------------------|
------------------7------------|----------7------------7----|
--0-0-0-0-0-0-0-0------0-0-0-0-|--0-0-0-0------0-0-0-0------|
-------------------------------|----------------------------|
-------------------------------|----------------------------|


                                                              
-------------------------------|-----------------------------|
------------------8------------|-----------------------10----|
--0-0-0-0-0-0-0-0------0-0-0-0-|--0-0-0-0-8----0-0-0-0-------|
-------------------------------|-----------------------------|
-------------------------------|-----------------------------|


                                                             
-------------------------------|----------------------------|
------------------7------------|----------7------------7----|
--0-0-0-0-0-0-0-0------0-0-0-0-|--0-0-0-0------0-0-0-0------|
-------------------------------|----------------------------|
-------------------------------|----------------------------|


                                                              
-------------------------------|-----------------------------|
------------------8------------|-----------------------10----|
--0-0-0-0-0-0-0-0------0-0-0-0-|--0-0-0-0-8----0-0-0-0-------|
-------------------------------|-----------------------------|
-------------------------------|-----------------------------|


                                                             
-------------------------------|----------------------------|
------------------7------------|----------7------------7----|
--0-0-0-0-0-0-0-0------0-0-0-0-|--0-0-0-0------0-0-0-0------|
-------------------------------|----------------------------|
-------------------------------|----------------------------|


                                                                                
-------------------|-------------------|-------------------|-------------------|
-------------------|-------------------|-------------------|-------------------|
--4----------------|-------------------|--0----------------|-------------------|
-------------------|--2----------------|-------------------|--0----------------|
-------------------|-------------------|-------------------|-------------------|


                                                                    
-------------------|-------------------|-----------------|---------|
-------------------|-------------------|-----------------|---------|
--4----------------|-------------------|-----------------|---------|
-------------------|--2----------------|--0--------------|--0------|
-------------------|-------------------|-----------------|---------|


                                                                               
-------------------------|-------------------------|--------------------------|
-------------------------|-------------------------|--------------------------|
-------------------------|-------------------------|--------------------------|
--0--0-0-0-----7---------|--0--0-0-0-----8---------|--0--0-0-0-----10---------|
------------5-----5------|------------6-----6------|------------8------8------|


                                                       
---------------------------|--------------------------|
---------------------------|--------------------------|
---------------------------|--------------------------|
--0--0-0-0-----8-------0-0-|--0--0---------0-0--------|
------------6-----6--------|--------5-5-5------5------|


                                                                               
-------------------------|-------------------------|--------------------------|
-------------------------|-------------------------|--------------------------|
-------------------------|-------------------------|--------------------------|
--0--0-0-0-----7---------|--0--0-0-0-----8---------|--0--0-0-0-----10---------|
------------5-----5------|------------6-----6------|------------8------8------|


                                                       
---------------------------|--------------------------|
---------------------------|--------------------------|
---------------------------|--------------------------|
--0--0-0-0-----8-------0-0-|--0--0---------0-0--------|
------------6-----6--------|--------5-5-5------5------|


                                                                               
-------------------------|-------------------------|--------------------------|
-------------------------|-------------------------|--------------------------|
-------------------------|-------------------------|--------------------------|
--0--0-0-0-----7---------|--0--0-0-0-----8---------|--0--0-0-0-----10---------|
------------5-----5------|------------6-----6------|------------8------8------|


                                                       
---------------------------|--------------------------|
---------------------------|--------------------------|
---------------------------|--------------------------|
--0--0-0-0-----8-------0-0-|--0--0---------0-0--------|
------------6-----6--------|--------5-5-5------5------|


                                                                               
-------------------------|-------------------------|--------------------------|
-------------------------|-------------------------|--------------------------|
-------------------------|-------------------------|--------------------------|
--0--0-0-0-----7---------|--0--0-0-0-----8---------|--0--0-0-0-----10---------|
------------5-----5------|------------6-----6------|------------8------8------|


                                                               
--------------------|--------------------|--------------------|
--------8--9--------|--------8--9--------|--------8--9--------|
-----6--------7-----|-----6--------7-----|-----6--------7-----|
--4--------------5--|--4--------------5--|--4--------------5--|
--------------------|--------------------|--------------------|


                                                               
--------------------|--------------------|--------------------|
--------8--9--------|--------8--9--------|--------8--9--------|
-----6--------7-----|-----6--------7-----|-----6--------7-----|
--4--------------5--|--4--------------5--|--4--------------5--|
--------------------|--------------------|--------------------|


                                                               
--------------------|--------------------|--------------------|
--------8--9--------|--------8--9--------|--------8--9--------|
-----6--------7-----|-----6--------7-----|-----6--------7-----|
--4--------------5--|--4--------------5--|--4--------------5--|
--------------------|--------------------|--------------------|


                                                               
--------------------|--------------------|--------------------|
--------8--9--------|--------8--9--------|--------8--9--------|
-----6--------7-----|-----6--------7-----|-----6--------7-----|
--4--------------5--|--4--------------5--|--4--------------5--|
--------------------|--------------------|--------------------|


                                                               
--------------------|--------------------|--------------------|
--------8--9--------|--------8--9--------|--------8--9--------|
-----6--------7-----|-----6--------7-----|-----6--------7-----|
--4--------------5--|--4--------------5--|--4--------------5--|
--------------------|--------------------|--------------------|


                                                                    
--------------------|----------------------|-----------------------|
--------8--9--------|----------------------|-------------9---------|
-----6--------7-----|--7---------9---------|--10-------------------|
--4--------------5--|-----0-0-0-----0-0-0--|------0-0-0-----0-0-0--|
--------------------|----------------------|-----------------------|


                                                                      
----------------------|-----------------------|----------------------|
--7-------------------|-----------------------|----------------------|
------------9---------|--10---------9---------|--5---------7---------|
-----0-0-0-----0-0-0--|------0-0-0-----0-0-0--|-----0-0-0-----0-0-0--|
----------------------|-----------------------|----------------------|


                                                                 
----------------------|-------------------|---------------------|
----------------------|-------------------|---------------------|
--9---------5---------|--7~---------------|---------------------|
-----0-0-0-----0-0-0--|---------0--0-0-0--|--0--0--0--0-0-0--0--|
----------------------|-------------------|---------------------|


                                                                      
----------------------|-----------------------|----------------------|
----------------------|-------------9---------|--7-------------------|
--7---------9---------|--10-------------------|------------9---------|
-----0-0-0-----0-0-0--|------0-0-0-----0-0-0--|-----0-0-0-----0-0-0--|
----------------------|-----------------------|----------------------|


                                                                      
-----------------------|----------------------|----------------------|
-----------------------|----------------------|----------------------|
--10---------9---------|--5---------7---------|--9---------5---------|
------0-0-0-----0-0-0--|-----0-0-0-----0-0-0--|-----0-0-0-----0-0-0--|
-----------------------|----------------------|----------------------|


                                                                 
-------------------|---------------------|----------------------|
-------------------|---------------------|----------------------|
--7~---------------|---------------------|--7---------9---------|
---------0--0-0-0--|--0--0--0--0-0-0--0--|-----6-6-6-----6-6-6--|
-------------------|---------------------|----------------------|


                                                                               
-----------------------|--------------------------|---------------------------|
-----------------------|--------------------------|---------------------------|
--10---------9---------|--7-----------9-----------|--10-----------9-----------|
------6-6-6-----6-6-6--|-----7--7--7-----7--7--7--|------7--7--7-----7--7--7--|
-----------------------|--------------------------|---------------------------|


                                                       
--------------------------|---------------------------|
--------------------------|---------------------------|
--7-----------9-----------|--10-----------9-----------|
-----8--8--8-----8--8--8--|------8--8--8-----8--8--8--|
--------------------------|---------------------------|


                                                                    
---------------------------------|---------------------------------|
---------------------------------|---------------------------------|
--9--------------12--------------|--10--------------7--------------|
-----10--10--10------10--10--10--|------10--10--10-----7-8-7-8-7-8-|
---------------------------------|---------------------------------|


                                                            
-------------------|------------------|--------------------|
-------------------|------------------|--2-----------------|
--2----------------|------------------|-----------3--------|
-------------------|------------------|--0-----------------|
-------------------|------------------|-----------1--------|


                                                                   
----------------------|---------------------|--------------7------|
--5----5/-7--7--------|--2----2-------------|--2----2-------------|
----------------------|--------------3------|--------------5------|
--3----3/-5--5--------|--0----0-------------|--0----0-------------|
----------------------|--------------1------|---------------------|


                                                                  
--------------------|----------------------|---------------------|
--2-----------------|--5----5/-7--7--------|--2----2-------------|
-----------3--------|----------------------|--------------3------|
--0-----------------|--3----3/-5--5--------|--0----0-------------|
-----------1--------|----------------------|--------------1------|


                                                                  
--------------7------|--------------------|----------------------|
--2----2-------------|--2-----------------|--5----5/-7--7--------|
--------------5------|-----------3--------|----------------------|
--0----0-------------|--0-----------------|--3----3/-5--5--------|
---------------------|-----------1--------|----------------------|


                                                                 
---------------------|--------------7------|--------------------|
--2----2-------------|--2----2-------------|--2-----------------|
--------------3------|--------------5------|-----------3--------|
--0----0-------------|--0----0-------------|--0-----------------|
--------------1------|---------------------|-----------1--------|


                                                                   
----------------------|---------------------|--------------7------|
--5----5/-7--7--------|--2----2-------------|--2----2-------------|
----------------------|--------------3------|--------------5------|
--3----3/-5--5--------|--0----0-------------|--0----0-------------|
----------------------|--------------1------|---------------------|


                                                                 
--------------------|----------------------|--------------------|
--2-----------------|--5----5/-7--7--------|--------7--8--------|
-----------3--------|----------------------|-----5--------6-----|
--0-----------------|--3----3/-5--5--------|--3--------------4--|
-----------1--------|----------------------|--------------------|


                                                            
--------8-----------|-----7-----------|--------------------|
-----6-----6--------|--5-----5-----5--|--------7--8--------|
--4-----------4--3--|-----------3-----|-----5--------6-----|
--------------------|-----------------|--3--------------4--|
--------------------|-----------------|--------------------|


                                                            
--------8-----------|-----7-----------|--------------------|
-----6-----6--------|--5-----5-----5--|--------7--8--------|
--4-----------4--3--|-----------3-----|-----5--------6-----|
--------------------|-----------------|--3--------------4--|
--------------------|-----------------|--------------------|


                                                            
--------8-----------|-----7-----------|--------------------|
-----6-----6--------|--5-----5-----5--|--------7--8--------|
--4-----------4--3--|-----------3-----|-----5--------6-----|
--------------------|-----------------|--3--------------4--|
--------------------|-----------------|--------------------|


                                                            
--------8-----------|-----7-----------|--------------------|
-----6-----6--------|--5-----5-----5--|--------7--8--------|
--4-----------4--3--|-----------3-----|-----5--------6-----|
--------------------|-----------------|--3--------------4--|
--------------------|-----------------|--------------------|


                                                                             
--------8-----------|-----7-----------|------------------|------------------|
-----6-----6--------|--5-----5-----5--|------------------|------------------|
--4-----------4--3--|-----------3-----|------------------|------------------|
--------------------|-----------------|------------------|------------------|
--------------------|-----------------|------------------|------------------|


                                                                   
------------------|------------------|----------------------------|
------------------|------------------|--------9-----10-----12-----|
------------------|------------------|--8--8-----8------8------8--|
------------------|------------------|----------------------------|
------------------|------------------|----------------------------|


                                                          
--12-----10-----9-----------|----------------------------|
----------------------10----|--------9-----10-----12-----|
------8------8-----8--------|--8--8-----8------8------8--|
----------------------------|----------------------------|
----------------------------|----------------------------|


                                                      
--10-----9-----------------|-------------------------|
---------------9-----10----|--------------7--9--9----|
------8-----8-----8--------|--0--0--0--0-------------|
---------------------------|-------------------------|
---------------------------|-------------------------|


                                                         
---------------------------|----------------------------|
--------------9--10--10----|--------------10--12--12----|
--0--0--0--0---------------|--0--0--0--0----------------|
---------------------------|----------------------------|
---------------------------|----------------------------|


                                                         
----------------------------|---------------------------|
--------------12--10--10----|--------------9--10--10----|
--0--0--0--0----------------|--8--8--8--8---------------|
----------------------------|---------------------------|
----------------------------|---------------------------|


                                                          
----------------------------|--------------10--12--12----|
--------------10--12--12----|----------------------------|
--8--8--8--8----------------|--8--8--8--8----------------|
----------------------------|----------------------------|
----------------------------|----------------------------|


                                                     
--------------10--9--9----|-------------------------|
--------------------------|--------------7--9--9----|
--8--8--8--8--------------|--0--0--0--0-------------|
--------------------------|-------------------------|
--------------------------|-------------------------|


                                                         
---------------------------|----------------------------|
--------------9--10--10----|--------------10--12--12----|
--0--0--0--0---------------|--0--0--0--0----------------|
---------------------------|----------------------------|
---------------------------|----------------------------|


                                                         
----------------------------|---------------------------|
--------------12--10--10----|--------------9--10--10----|
--0--0--0--0----------------|--8--8--8--8---------------|
----------------------------|---------------------------|
----------------------------|---------------------------|


                                                          
----------------------------|--------------10--12--12----|
--------------10--12--12----|----------------------------|
--8--8--8--8----------------|--8--8--8--8----------------|
----------------------------|----------------------------|
----------------------------|----------------------------|


                                                                 
--------------10--9--9----|
--------------------------|
--8--8--8--8--------------|
--------------------------|
--------------------------|


Tabbed by Ed_Hunter



            
            
Suggest correction
Creating personal tab
Creating personal tab
You can edit any tab online and save it as your Personal.

You can edit, replace or remove any tab part or add personal notes – all changes will be seen only by you.

Personal tabs can be accessed anytime from any device, even offline.
Learn more »
Give kudos to tab author, rate the tab!
1 2 3 4 5
comments
print report bad tab
guest
You may want to rate the tab now too:
select rating
Wanna post a correction for this tab? Suggest correction