Oops, an error
Loading. Please wait.
We have an official Spiritual Healing tab made by UG professional guitarists. Check out the tab »
×
by Death
26,169 views 18 this week
3 commentsread comments
1 2 3 4 5
x 9
add to favorites
×
Save as Personal and add changes to this tab that will be seen only by you. Learn more ›
×
You can save this tab as Personal to edit and correct it or add notes. All changes will be seen only by you. Learn more »
launch autoscroll
font size
0
reset
how to read this tab
guitar tuner
edit
Autoscroll
slow
fast
+/-
esc
set tempo
stop
DEATH - SPIRITUAL HEALING 
                     FROM THE "SPIRITUAL HEALING" ALBUM
                       Copyright 1990 Relativity Records


Tuning: D, tune every string down one step

 Opening Riff(GUITAR ONE)
D|--------------------------------------------------------------------------
A|--------------------------------------------------------------------------
F|--------------------------------------------------------------------------
C|--T-P-T--P-T--P--T-P-T--P-T--P-T--P--T-P--T-P--T--P--T--P--T-P-T--P-T--P--
G|-12-5-12-7-12-8-12-5-12-7-12-8-12-5-12-7-16-9-16-11-16-12-11-4-11-6-11-7--
D|--------------------------------------------------------------------------
| guitar 2
|--------------------------------------------------------------------------
|--------------------------------------------------------------------------
|--------------------------------------------------------------------------
|--------------------------------------------------------------------------
|-7---------------------------------------11---------------6---------------
|-5---------------------------------------9----------------4---------------

  continuation of above Riff
D|--------------|
A|--------------|           Play Opening Riff 4 times
F|--------------| gtr I
C|--T--P-T--P---|
G|--15-8-15-10--|
D|--------------|
|
|
D|--------------|
A|--------------|
F|--------------| Gtr II
C|--------------|
G|--10----------|
D|--8-----------|

D|----------|
A|----------|
F|----------|
C|----------|
G|-3--3--3--|
D|-1--1--1--|
                                               ______
Riff A                                        | 1,2,3,4,5,6,7
|---------------------------------------------------|
|---------------------------------------------------|
|---------------------------------------------------| Gtr 1 and 2
|---------------------------------------------------|
|-3--------3---5---6-------3--------6---5---3-------|
|-1-0000-0-1-0-3-0-4-0-0-0-1-0000-0-4-0-3-0-1-0-0-0-|
    .... .   .   .   . . .   .... .   .   .   . . .

Play Riff A a total of 8 times

  Riff B(repeat 4 times)
D|---|----------------------------|
A|---|----------------------------|
F|---|*--------------------------*|
C|---|*--------------------------*|
G|-3-|--4----4~---3--5-5-5-5-5-5--|
D|-1-|--2---------1--3-3-3-3-3-3--|
                      . .   . .

  Riff C
D|----------------------------------------------------------------------|
A|----------------------------------------------------------------------|
F|----------------------------------------------------------------------|
C|-----------------6----------------7----------------6--------5---------|
G|-----------------4----------------5----------------4--------3---------|
D|-2222222222222222-3333333333333333-5555555555555555-44444444-33333333-|
  ................ ................ ................ ........ ........

Play Riff C a total of 8 times,last time end shortly and end with the C5

 Riff D
D|------------------------------------------------------------------|
A|------------------------------------------------------------------|
F|------------------------------------------------------------------|
C|------------------------------------------------------------------|
G|-----------------6666666677777777----------------66664444---------|
D|-4444444444444444----------------3333333333333333--------77776666-|
  ................................................................

 Play Riff D a total of 4 times
                       _________________    _______________   
 Riff E.1             | 1.                 | 2.
D|----------------------------------------|-----------------|
A|----------------------------------------|-----------------|
F|----------------------------------------|-----------------|
C|-6--------7----6------------------------|-----------------|
G|--55555555-5555-55557----8----7----8-8--|-7----8----7~----|
D|---------------------6666-6666-6666-6-6-|--6666-6666------|
   ........ .... .... .... .... .... . .    .... ....
                                    ______  _______
Riff E.2                           | 1,3   | 2,4
|-----------------------------------------|----------|
|-----------------------------------------|----------|
|-----------------------------------------|----------|
|-----------------------------------------|----------|
|--7--------------------------------------|----------|
|----5-444444444444444433333333333333333--|-0000-----|
       .................................    ....

Play Riff E.1, Riff E.2

Riff F.1
|----|----|
|----|----|
|----|----|
|----|----|
|----|----|
|-2--|-2--|
|-0--|-0--|

Riff F.2(play 8 times)
|-----------------------------|-----------------------------|
|-----------------------------|-----------------------------|
|-----------------------------|-----------------------------|
|-----------------------------|-----------------------------|
|-----------------------------|-----------------------------|
|-5-----3-----5-----3-----9-8-|-5-----3-----5-----3-----6-5-|
|-3-0-0-1-0-0-3-0-0-1-0-0-7-6-|-3-0-0-1-0-0-3-0-0-1-0-0-4-3-|
    . .   . .   . .   . .         . .   . .   . .   . .

  4 times      2 times     2 times    8 times
D|-----------|-------------|----------|----------|
A|-t--p--h-p-|-t--p--h--p--|-t--p-h-p-|-t--p-h-p-|
F|-16-9-12-9-|-17-10-13-10-|-12-5-8-5-|-13-6-9-6-| gtr one
C|-----------|-------------|----------|----------|
G|-----------|-------------|----------|----------|
D|-----------|-------------|----------|----------|
|
D|-----------|-------------|----------|----------|
A|-----------|-------------|----------|----------|
F|-9---------|-10----------|-5--------|-6--------| gtr 2
C|-----------|-------------|----------|----------|
G|-7---------|-8-----------|-3--------|-4--------|
D|-----------|-------------|----------|----------|

Play The above twice

  4 times      2 times     2 times    8 times    
D|-------------|-------------|----------|-----------|
A|-t--p--h--p--|-t--p--h--p--|-t--p-h-p-|-t--p-h--p-|
F|-17-10-13-10-|-17-11-14-11-|-13-6-9-6-|-14-7-10-7-| gtr one
C|-------------|-------------|----------|-----------|
G|-------------|-------------|----------|-----------|
D|-------------|-------------|----------|-----------|
|
D|-------------|-------------|----------|-----------|
A|-------------|-------------|----------|-----------|
F|-10----------|-11----------|-6--------|-7---------| gtr 2
C|-------------|-------------|----------|-----------|
G|-8-----------|-9-----------|-4--------|-5---------|
D|-------------|-------------|----------|-----------|

Play The Above twice

  play four times 
D|--------------------------------------------------|
A|--------------------------------------------------|
F|--------------------------------------------------|
C|--------------------------------------------------|
G|-------------------------444444444444------333333-|
D|-222222222222222222222222------------444444-------|  
  ................................................

  play four times 
D|--------------------------------------------------|
A|--------------------------------------------------|
F|--------------------------------------------------|
C|--------------------------------------------------|
G|--------------------------------------------------|
D|-000000000000000000000000333333333333666666111111-|  
  ................................................

Play Riff A 8 times
Play Riff B
Play Riff C 8 times, on last time cut it short with the C5
Play Riff D
Play Riff E.1,E.2,E.1,E.2
Play Riff F.1
Play Riff F.2
End song with E5



************************************

.  - palm mute                         /  - slide up to                       
\  - slide down to                     ~  - vibrato                            
h  - hammer on                         b  - bend 
p  - pull off                              Suffixes for bend    
t  - tap with finger                   f - full bend    h - half bend
() - ghost note                        r - release      t - tap bend
*  - see comment                       p - pick when bent 

************************************

            
            
Suggest correction
Creating personal tab
Creating personal tab
You can edit any tab online and save it as your Personal.

You can edit, replace or remove any tab part or add personal notes – all changes will be seen only by you.

Personal tabs can be accessed anytime from any device, even offline.
Learn more »
comments
print report bad tab
3 comments total.
0 reply
jimmyled 90 Feb 25, 2010 02:37 AM

No solo? Why?

0 reply
elvo86 41 Nov 20, 2011 02:02 PM

intro kills

0 reply
elvo86 41 Dec 01, 2011 02:37 PM

no solooo:(

guest
Wanna post a correction for this tab? Suggest correction