Oops, an error
Loading. Please wait.

Suicide Machine Tab

version 1
version 1

Whole song

by Death
21,031 views 24 this week
1 commentread comment
1 2 3 4 5
x 8
add to favorites
×
Save as Personal and add changes to this tab that will be seen only by you. Learn more ›
×
You can save this tab as Personal to edit and correct it or add notes. All changes will be seen only by you. Learn more »
save as personal
new!
launch autoscroll
font size
0
reset
how to read this tab
guitar tuner
Autoscroll
slow
fast
+/-
esc
set tempo
stop
DEATH - SUICIDE MACHINE
From the Album "HUMAN"
guitar 1

Transcribed by Outhman Mouhammed Souleimane Bendiar (Sly) 
Email me if you have any questions, comments or if there are any errors to : divasly@hotmail.com
even though i'm sure there ain't no errors out there

Tuning = D (D,G,C,F,A,D)


Riff 1

|-------------|-------------|-------------|-------------|
|-------------|-------------|-------------|-------------|
|-------------|-------------|-------------|-------------|
|-------------|-------------|-------------|-------------|
|-6-----6-----|-6-----7-----|-6-----6-----|-5-----7-----|
|---444---444-|---4-5---5-4-|---444---333-|---4-5---5-4-|


Riff 2                          ends with

|------------|-------------|    |------------|-------------|
|------------|-------------|    |------------|-------------|
|------------|-------------|    |------------|-------------|
|------------|-------------|    |------------|-------------|
|------------|-------7-----|    |------------|-------7---2-|
|-0000000000-|-0-4-5---5-4-|    |-0000000000-|-0-4-5---5-0-|


Riff 3

|---------------------|--------------------|---------------------|
|---------------------|--------------------|---------------------|
|---------------------|--------------------|---------------------|
|---------------------|--------------------|---------------------|
|---------------------|----------------3---|---------------------|
|-0000-4444-3333-0000-|-2222-3333-0000-1---|-0000-4444-3333-0000-|

|--------------------|
|--------------------|
|--------------------|
|----------------3---|
|----------------1---|
|-2222-3333-0000-----|


Riff 4

|-------------------------|-------------------------|
|-------------------------|-------------------------|
|-------------------------|-------------------------|
|-2-1---3-2---2-1---3-2---|-2-1---3-2---2-1---------|
|-----2-----3-----2-----3-|-----2-----3-----2-3-2-0-|
|-------------------------|-------------------------|

at the end of riff 4
|-------------------------|-------------------------|
|-------------------------|-------------------------|
|-------------------------|-------------------------|
|-2-1---3-2---2-1---3-2---|-2-1---3-2---2-1-----4---|
|-----2-----3-----2-----3-|-----2-----3-----2-3-2---|
|-------------------------|-------------------------|


Riff 5

|-----------------------|----------------------|-----------------------|
|-----------------------|----------------------|-----------------------|
|-10--9--7--------------|---------6--8--9--8---|-10--9--7--------------|
|-----------10-9-7-9----|-6--8--9--------------|----------10-9-7-9-----|
|-----------------------|----------------------|-----------------------|
|-----------------------|----------------------|-----------------------|

|-------------------|
|-------------------|
|-------------------|
|-6-5---------------|
|-----6-7-6-4-6-----|
|-------------------|


Riff 6

|-------------------|-------------------|
|-------------------|-------------------|
|-------------------|-------------------|
|-------------------|-------------------|
|-9--------8--------|-9--------8--------|
|---666666---555555-|---777777---666666-|


Riff 7

|------------------|------------------|
|------------------|------------------|
|------------------|------------------|
|----------4---6---|----------5-----6-|
|------------3---4-|------------3-4---|
|-00000000---------|-33333333---------|

|------------------|------------------|
|------------------|------------------|
|------------------|------------------|
|----------4---6---|----------6-----5-|
|------------3---4-|------------4-3---|
|-00000000---------|-33333333---------|



Riff 8

|-----------------|-----------------|-----------------|---------------------|
|-----------------|-----------------|-----------------|---------------------|
|-----------------|-----------------|-----------------|---------------------|
|-----------------|-----------------|-----------------|---------------------|
|------4-------4--|------4-----5--5-|------4-------4--|---------------------|
|-2222-2--2222-2--|-2222-2--33-3--3-|-2222-2--2222-2--|-3333-5555-6666-3333-|

ends with

|-----------------|-----------------|-----------------|---------------------|
|-----------------|-----------------|-----------------|---------------------|
|-----------------|-----------------|-----------------|---------------------|
|-----------------|-----------------|-----------------|---------------------|
|------4-------4--|------4-----5--5-|------4-------4--|---------------------|
|-2222-2--2222-2--|-2222-2--33-3--3-|-2222-2--2222-2--|-3333-5555-6666-3----|



fill1

|--------------------|
|--------------------|
|--------------------|
|--------------------|
|-----0-2-0---3------|
|-1-4-------4-1------|


Riff 9

|--------------------|------------------------------------------|
|--------------------|------------------------------------------|
|--------------------|------------------------------------------|
|--------------------|-------------3----------------------------|
|-----0-2-0---3------|-----0-2-4-5---5-4-2-0-------0-2-0---3----|
|-1-4-------4-1------|-1-4-------------------4-1-4-------4-1----|

ends with

|--------------------|-------------------------|
|--------------------|-------------------------|
|--------------------|-------------------------|
|--------------------|-------------3-----------|
|-----0-2-0---3------|-----0-2-4-5---5-4-2-0---|
|-1-4-------4-1------|-1-4-------------------4-|


Riff 10

|-----------------|-----------------|-----------------|-----------------|
|-----------------|-----------------|-----------------|-----------------|
|-----------------|-----------------|-----------------|-----------------|
|-----------------|-----------------|-----------------|-----------------|
|-222-222-222-222-|-222-222-222-222-|-333-333-333-333-|-----------------|
|-----------------|-----------------|-----------------|-444-444-444-444-|

|-----------------|-----------------|-----------------|-----------------|
|-----------------|-----------------|-----------------|-----------------|
|-----------------|-----------------|-----------------|-----------------|
|-----------------|-----------------|-----------------|-----------------|
|-555-555-555-555-|-555-555-555-555-|-666-666-666-666-|-----------------|
|-----------------|-----------------|-----------------|-777-777-777-777-|
Suggest correction
comments
print report bad tab
1 comment total.
0 reply
markofskeleto 10 Aug 07, 2013 05:28 AM

Solid tab bro

guest
Wanna post a correction for this tab? Suggest correction