Oops, an error
Loading. Please wait.
We have an official Symbolic tab made by UG professional guitarists. Check out the tab »
×
by Death
28,793 views 42 this week
2 commentsread comments
1 2 3 4 5
x 15
add to favorites
×
Save as Personal and add changes to this tab that will be seen only by you. Learn more ›
×
You can save this tab as Personal to edit and correct it or add notes. All changes will be seen only by you. Learn more »
launch autoscroll
font size
0
reset
how to read this tab
guitar tuner
backing track
0:00
0:00
edit
Autoscroll
slow
fast
+/-
esc
set tempo
stop
.  - palm mute                  /  - slide up to
\  - slide down to              ~  - vibrato
"  - tremelo picking           ( ) - ghost note
b  - bend                       h  - hammer-on
fb - full bend (1 step)         p  - pull-off
hb - half bend (1/2 step)       r  - release a bend
t  - tapping                    ah - artificial harmonic

Tune Gtr to D [D,G,C,F,A,D]

1.) Symbolic

[Riff A]                                           [2tx]
[--------------------------|---------------------------]
[--------------------------|---------------------------]
[*-------------------------|--------------------------*][Gtr.1]
[*-9------------9----------|-9---------sl-------------*]
[--7------8~~~~~7-------8~~|-7------8~~~\---5-----3----]
[--0--0-0-^-----0-0-0-0-^--|-0--0-0-^-----3---3-1---1--]
   ^  . .       ^ . . .      ^  . .

[Play on 2nd time]
[--------------------------|-sl------------------------]
[--------------------------|-/13-12_13_12--------------]
[*---------------------/9--|(9)----h--p---12-11-9-----*][Gtr.2]
[*-2-------------------/9--|(9)-------------------109-*]
[--2-------------------/7--|(7)------------------------]
[--0-------------------/0--|(0)------------------------]
   ^                  sl


[Riff A.1]                                         [6tx]
[--------------------------|---------------------------]
[--------------------------|---------------------------]
[*-------------------------|--------------------------*][Gtrs.1&2]
[*/9------------9----------|-9---------sl-------------*]
[-/7------8~~~~~7-------8~~|-7------8~~~\---5-----3----]
[-/0--0-0-^-----0-0-0-0-^--|-0--0-0-^-----3---3-1---1--]
 sl^  . .       ^ . . .      ^  . .


[Riff B]
[------------------------------------------]
[------------------------------------------]
[*----------------------------------------*][Gtrs.1&2]
[*----------------------------------------*]
[-----------9-10--------------12-10-9-10---]
[--00000000------000000000000--------------]
   ........      ............
                 |__________|
                    --12--             [6tx]
[------------------------------------------]
[------------------------------------------]
[*----------------------------------------*][Gtrs.1&2]
[*----------------------------------------*]
[-----------9-10--------------9-10-9-7-----]
[--00000000------000000000000----------8~~~]
   ........      ............
                 |__________|
                    --12--

[Riff C]                                              [6tx]
[-----------------------------|---------------------------] The second time
[-----------------------------|---------------------------] Gtr. 1 and 2
[*----------------------------|--------------------------*] harmonize last
[*-6----------/7-6------------|------7----7-6------------*] part by using
[--6---------sl----7~~~~~~~~~~|------7--------7-6---------] 5th's.
[--4---------------^----------|-5555-5--------------------]
   ^                            .... ^   [a.h.](only 6th time)


[Riff D]                                              [4tx]
[--------------------------|------------------------------]
[--------------------------|------------------------------]
[*-------------------------|-----------------------------*]
[*---3-----2--3_2_0--------|---3-----2-------------------*]
[----3-----2---p-p-3-2-----|---3-----2---3---2-----3-2----]
[--0-^---0-^-----------4---|-0-^---0-^-----4---3-1-----3--]
   .     .             ^     .     .     . . . . . . . .


[Fill 1]                   [Riff E]       [14tx]
[-------------------------][-------------------]
[-------------------------][-------------------]
[*-----------------------*][*-----------------*][Gtrs.1&2]
[*-2---------------------*][*-----------------*]
[--2----------------------][-3---2-----3-2-----]
[--0----------------------][---4---3-1-----3---]
   ^                         . . . . . . . .


[Riff F]                           [6tx]
[------------------|-------------------]
[------------------|-------------------]
[*-----------------|----------7---9---*][Gtrs.1&2]
[*-4---------------|-3--------7---9---*]
[--4---------------|-3--------5---7----]
[--2---------------|-1--------^---^----]
   ^                 ^


[Solo I] (w/Riff F)              ______________________
[-------------------------------|    --Hold Bend--     |-------------]
[--14~~~~~~~14-14-14-141/2b-13-141/2b~~~~14-14-14-14-14r-\-----------]
[*-------------------------------------------------------sl---------*]
[*------------------------------------------------------------------*]
[--------------------------------------------------------------------]
[--------------------------------------------------------------------]

[Staccatos = " . "]
[--sl----------------------------------------X---/22----------22-19--]
[--/15--------------15--14--15----------15-X----sl-.-20----20--------]
[*---.--14------14---.---.---.-14----14--.--------------18----------*]
[*-------.--12---.--------------.-12--.-----------------------------*]
[------------.---------------------.---------------------------------]
[--------------------------------------------------------------------]

                                          [Tapping]
[-----22-20-19-------20-19-------------------------------------------]
[--20----------21-22-------18-20-21~~~~\--19_15_19_15_12_0_12_15-19_-]
[*-----------------------------[a.h.]--sl--tp--h--p--p--p-h--h----t-*]
[*------------------------------------------------------------------*]
[--------------------------------------------------------------------]
[--------------------------------------------------------------------]

[--------------------------------------------------------------------]
[-15_19_15_12_0_12_15-19_15_19_15_12_0_12_15-19_15_19_15_12_0_12_15--]
[*--h--p--p--p-h--h----tp--h--p--p--p-h--h----tp--h--p--p--p-h--h---*]
[*------------------------------------------------------------------*]
[--------------------------------------------------------------------]
[--------------------------------------------------------------------]

[--------------------------------------------------------------------]
[--19_15_19_15_12_0_12_15-19_15_19_15_12_0_12_15-20_16_13_16_13_0_13_]
[*--tp--h--p--p--p-h--h----tp--h--p--p--p-h--h----tp--p--h--p--p-h--*]
[*------------------------------------------------------------------*]
[--------------------------------------------------------------------]
[--------------------------------------------------------------------]

[--------------------------------------------------------------------]
[--_16-20_16_13_16_13_0_13_16-20_16_13_16_13_0_13_16-20_16_13_16_13_-]
[*-h----tp--h--p--p--p-h--h----tp--h--p--p--p-h--h----tp--h--p--p---*]
[*------------------------------------------------------------------*]
[--------------------------------------------------------------------]
[--------------------------------------------------------------------]

[-----------22-21-22-21-19-------------------------------------------]
[--_0_13_16----------------22-20-19-20-19----------------------------]
[*-p-h--h---------------------------------21-19-18----------18-19~~~*]
[*-------------------------------------------------21-20-21---------*]
[--------------------------------------------------------------------]
[--------------------------------------------------------------------]

[--------------------------------------------------------------------]
[--------------------------------------------------------------------]
[*-18--19------18----------16-19-18-16------------------------------*]
[*--.---.--16---.--16--17--------------17-16-17-16----16-17---------*]
[-----------.-------.---.--------------------------19-------19-17~~~~]
[--------------------------------------------------------------------]

[--------------------------------------------------------------------]
[--------------------------------------------------------------------]
[*----------------------------12-14-15-14---------------------------*]
[*-12----------------12-14-15-------------15-14-12------------------*]
[-----15-14-12-14-15-------------------------------15-14-12-14-15----]
[--------------------------------------------------------------------]

[--------------------------------------------------------------------]
[--------------------------------------------------------------------]
[*----------12-14-15-14----------------------------------12-14-15---*]
[*-12-14-15-------------15-14-12----------------12-14-15------------*]
[--------------------------------15-14-12-14-15----------------------]
[--------------------------------------------------------------------]

[--------------------------------------------------------------------]
[--13-15-16-15-13----------13-15-16-15-13----------13-15-16-15-13-15-]
[*----------------15-14-15----------------15-14-15------------------*]
[*------------------------------------------------------------------*]
[--------------------------------------------------------------------]
[--------------------------------------------------------------------]

[---------------------------------17--------------17-19-17-15-14-----]
[--16-15~~~~~~15--------------15---.--15------15---.-------------15~~]
[*-------------.--14------14---.-------.--14---.--------------------*]
[*-----------------.--12---.---------------.------------------------*]
[----------------------.---------------------------------------------]
[--------------------------------------------------------------------]

                                   [End Solo I]
[---------------------------------------------]
[--17-15-17-15~~17-15-14----------------------]
[*-----------------------16-14---------------*]
[*-----------------------------17-16-14------*]
[---------------------------------------17\---]
[-----------------------------------------sl--]


[Fill 2]             (" . " = Staccatos)
[------------------|-------------------]
[------------------|-------------------]
[*-----------------|------------------*][Gtrs.1&2]
[*----------5------|-3----------------*]
[-----2------------|-3-----------------]
[--0--.-------3----|-1-----------------]
              .      ^


[Riff G]
[------------------------------------------]
[------------------------------------------]
[*----------------------------------------*][Gtrs.1&2]
[*-7--------6-----------------------------*]
[--5--------4--------5---------------------]
[--^-222222-^-222222-3-222222222222222222--]
     ......   ...... ^ ..................
                       |________________|
                             --18-- [51/2tx]
[------------------------------------------]
[------------------------------------------]
[*----------------------------------------*][Gtrs.1&2]
[*-7--------6--------9--------------------*]
[--5-222222-4-000000-7---------------------]
[--^--------^--------^-333333333333333333--]
     ......   ......   ..................
                       |________________|
                             --18--


[Solo II] (w/Riff G)
[--14----------------------------15-14----------------------------14-]
[-----15----------------------14-------15----------------------15----]
[*-------16----------------16-------------16----------------16------*]
[*----------16----------16-------------------16----------16---------*]
[--------------17-14-17-------------------------17-14-17-------------]
[--------------------------------------------------------------------]

[--15-14-------------------------------14-15-17-19fb~~~~~~20fb~~~~~~~]
[--------15----------------------14-15---------[a.h.]----------------]
[*----------16----------------16------------------------------------*]
[*-------------16----------16---------------------------------------*]
[-----------------17-14-17-------------------------------------------]
[--------------------------------------------------------------------]

  _________________
[|  --Hold bend--  |
[-20"r-b20"r-b20"r-b20r-20"-21-19-18----------------------18-19-21---]
[------------------------------------21-19-18----18-19-21------------]
[*--------------------------------------------20--------------------*]
[*------------------------------------------------------------------*]
[--------------------------------------------------------------------]
[--------------------------------------------------------------------]

[--22-21-19-18-------------------------------------------------------]
[--------------21-19-18-------------------------------------18-19----]
[*----------------------20-19----------------------------19---------*]
[*----------------------------21-20-18----------18-20-21------------*]
[--------------------------------------21-20-21----------------------]
[--------------------------------------------------------------------]

[--------------------------------------------------------------------]
[--21--------------------15fb~~~16fb~~~15fb~~~14-15-14-12-------12---]
[*----20-19-18fb~~~~r-\-[a.h.]-[a.h.]-[a.h.]--------------14-12-----*]
[*---------[a.h.]----sl---------------------------------------------*]
[--------------------------------------------------------------------]
[--------------------------------------------------------------------]
                                                           .  .
[End Solo II]
[--------------------------------------------------------]
[-----14----15---------17----------19----------18fb~~~~~~]
[*-14----14---16-14-------18-16-------20-18---[a.h.]----*]
[*------------------16----------17----------18----------*]
[--------------------------------------------------------]
[--------------------------------------------------------]
    .     .    .  .  .     .  .        .  .


[Fill 3]
[-----------------------------------]
[----------------------------------*]
[*---------------------------------*]
[*-7--------6----------------------*]
[--5-222222-4-000000-7--------------]
[--^--------^-----------4----3~~~~~-]
     ......   ......    ^    ^


repeat Intro     [6tx]
repeat Section A [6tx]
repeat Section B [6tx]
repeat Section C [4tx]
repeat Chorus until fade out [reversed drums]


2.) Zero Tolerance

tune : D(standar)(D,G,C,F,A,D)


___Begin Rif A________________________________________________________

   .     .                     .     .
|--------------------------------------------------------------------|
|--------------------------------------------------------------------|
|--------------------------------------------------------------------|
|-------------------4--5------------------------4--5-----------------|
|-----2-------3-----2--3--5-------2-------3-----2--3--5--------------|
|--0-----0----1-----------3----0-----0----1-----------3--------------|

___Continue___________________________________________________________
   .     .                     .     .
|--------------------------------------------------------------------|
|--------------------------------------------------------------------|
|--------------------------------------------------------------------|
|-----2-------3-----------3-------2-------3----------3---------------|
|--0-----0----1-----2--3--1----0-----0----1----2--3--1---------------|
|-------------------0--1--1--------------------0--1--1---------------|

Play 2x

======================================================================
___Begin Rif B________________________________________________________

|------------------------------------20-------19-------17------------|
|------------------17----------17-20----20-17----20-17----17---------|
|---------------------17-14/17-------------------------------15-16~--| Gtr1
|--14-12-------------------------------------------------------------|
|---------15-14-12---------------------------------------------------|
|--------------------------------------------------------------------|



|--------------------------------------------------------------------|
|--------------------------------------------------------------------|
|--------------------------------------------------------------------| Gtr2
|-5-------------------------------------4----------------------------|
|-3-------------------------------------2----------------------------|
|--------------------------------------------------------------------|

___Continue___________________________________________________________

|-----------------------------------12/19~-------19-17---------------|
|-----------17----17/19~-----17------------------------19-20---------|
|-16/17-17~----16---------------16-----------------------------------|
|--------------------------------------------------------------------|
|--------------------------------------------------------------------|
|--------------------------------------------------------------------|



|--------------------------------------------------------------------|
|--------------------------------------------------------------------|
|--------------------------------------------------------------------| Gtr2
|-5-------------------------------------4----------------------------|
|-3-------------------------------------2----------------------------|
|--------------------------------------------------------------------|

======================================================================
___Begin Rif C________________________________________________________

   . . . .    . . . .  . .         . . . .    . . . .  . .
|--------------------------------------------------------------------|
|----------------------------------------------------------5~--------|
|----------------------4-5-7~--------------------------4-5-----------| Gtr2
|--------------------------------------------------------------------|
|--------------------------------------------------------------------|
|--0-0-0-0----0-0-0-0--------------4-4-4-4----4-4-4-4----------------|

Play 4x

When 3rd time starts, gtr1 playes:

|-------------11h12p11-----------------------------------------------|
|-----12/13~----------13-15-12-12----12/13~---13-12-10---------------|
|--9-------------------------------9-------------------12-11---------|
|--------------------------------------------------------------------|
|--------------------------------------------------------------------|
|--------------------------------------------------------------------|

Play 2x

======================================================================
___Begin Rif D________________________________________________________

|--------------------------------------------------------------------|
|--------------------------------------------------------------------|
|--------------------------------------------------------------------|
|-------------/3-(0)*------------------------------------------------|
|--2------------------2-------2-------2-------2-------2----2~--------|
|--0---------------------0-0-----0-0-----0-0-----0-0-----0-----------|

Play 4x

* Play 0 on 2nd time after the slide

======================================================================
___Begin Riff E_______________________________________________________
                     .            .  .        .
|--------------------------------------------------------------------|
|--------------------------------------------------------------------|
|---------------------------------------5~---------------------------|
|---------------------------------3--5-----------2"------------------|
|--2---------------------5---3---------------------------------------|
|--0------------------0--3---1----------------0----------------------|

Play 4x

======================================================================
___Begin Solo1________________________________________________________
                                                . .  .  .
|--------------------------------------------------------------------|
|-----------10--13--12--13~----15--13--12~---------------------------|
|-----------------------------------------------9-10-12-13~----------|gtr1
|--------------------------------------------------------------------|
|--------------------------------------------------------------------|
|--------------------------------------------------------------------|




|------------8--12--10--12~----13--12--10~---------------------------|
|--------------------------------------------------------------------|
|--------------------------------------------------------------------|gtr2
|--------------------------------------------------------------------|
|--------------------------------------------------------------------|
|--------------------------------------------------------------------|


   . . . . . . . . . . . . . . . . . . . . . . . . . . . . . . . . .
|--------------------------------------------------------------------|
|--------------------------------------------------------------------|
|--------------------------------------------------------------------|gtr3
|--------------------------------------------------------------------|
|--0-0-0-0-0-0-0-0-0-0-0-0-0-0-0-0-0-0-0-0-0-0-0---------------------|
|------------------------------------------------4-4-4-4-4-4-4-4-4-4-|


___Continue___________________________________________________________

|--------------------------------------------------------------------|
|--17--17--18--17--15------15----------------------------------------|
|----------------------17-----17--16--14--13~-------------------------|gtr1
|--------------------------------------------------------------------|
|--------------------------------------------------------------------|
|--------------------------------------------------------------------|



   . . . . . . . . . . . . . . . . . . . . . . . . . . . . . . . . .
|--------------------------------------------------------------------|
|--------------------------------------------------------------------|
|--------------------------------------------------------------------|gtr3
|--------------------------------------------------------------------|
|--------------------------------------------------------------------|
|--0-0-0-0-0-0-0-0-0-0-0-0-0-0-0-0-0-0-0-0-0-0-0-0-0-0-0-0-0-0-0-0-0-|

Play 2x
======================================================================


|--23~---23--23--22-22-23~-20-19-17--16-17-16------------------------|
|---------------------------------------------17--15--17-------------|
|--------------------------------------------------------------------|gtr1
|--------------------------------------------------------------------|
|--------------------------------------------------------------------|
|--------------------------------------------------------------------|


   . . . . . . . . . . . . . . . . . . . . . . . . . . . . . . . . .
|--------------------------------------------------------------------|
|--------------------------------------------------------------------|
|--------------------------------------------------------------------|gtr3
|--------------------------------------------------------------------|
|--0-0-0-0-0-0-0-0-0-0-0-0-0-0-0-0-0-0-0-0-0-0-0-0-0-0-0-0-0-0-0-0-0-|
|--------------------------------------------------------------------|


___Continue___________________________________________________________

   . . .     . . . .   . . . .   . . .
|--------------------------------------------------------------------|
|--------------------------------------------------------------------|
|--------------------------------------------------------------------|gtr1
|--14141414--13131313------------------------------------------------|
|----------------------14141414--12121212--11~-----------------------|
|-----------------------------------------------12h13p12-------------|



   . . . . . . . . . . . . . . . . . . . . . . . . . . . . . . . . .
|--------------------------------------------------------------------|
|--------------------------------------------------------------------|
|--------------------------------------------------------------------|gtr3
|--------------------------------------------------------------------|
|--------------------------------------------------------------------|
|--4-4-4-4-4-4-4-4-4-4-4-4-4-4-4-0-0-0-0-0-0-0-0-0-0-0-0-0-0-0-0-0-0-|

___Continue___________________________________________________________


|--------------------------------------------------------------------|
|--10--12-13~----------17-18-17-15h17p15-13-15-13-12----12h13p12~----|
|--------------------------------------------------------------------|gtr1
|--------------------------------------------------------------------|
|--------------------------------------------------------------------|
|--------------------------------------------------------------------|



   . . . . . . . . . . . . . . . . . . . . . . . . . . . . . . . . .
|--------------------------------------------------------------------|
|--------------------------------------------------------------------|
|--------------------------------------------------------------------|gtr3
|--------------------------------------------------------------------|
|--0-0-0-0-0-0-0-0-0-0-0-0-0-0-0-0-0-0-0-0-0-0-0-0-0-0-0-4-4-4-4-4-4-|
|--------------------------------------------------------------------|

___Continue___________________________________________________________

(play Fast)
|--------------------------------------------------------------------|
|--12--13--12-10910121312109-----------------------------------------|
|----------------------------109757542121-1--------------------------|gtr1
|----------------------------------------3-32------------------------|
|--------------------------------------------------------------------|
|--------------------------------------------------------------------|



  . . . . . . . . . . . . . . . . . . . . . . . . . . . . . . . . .
|--------------------------------------------------------------------|
|--------------------------------------------------------------------|
|--------------------------------------------------------------------|gtr2
|--------------------------------------------------------------------|
|--------------------------------------------------------------------|
|-4-4-4-4-4-4-0-0-0-0-0-0-0-0-0-0-0-0-0-0-0-0-0-0-0-0-0-0-0-0-0-0-0--|

======================================================================
___Begin Solo2________________________________________________________

   . . .       . . .     . . .
|-------------------------------------|
|-------------------------------------|
|-------------------------------------|
|-------------------------------------|
|--------4-----------2---------5------|
|--2-2-2-2-----0-0-0-0---3-3-3-3------|




|--------------------------------------------------------------------|
|-18~-18~-18~-18-16-18~--18~-18~-18~-18~-19~-19~--16-16-16-14-13-16--|
|--------------------------------------------------------------------|gtr1
|--------------------------------------------------------------------|
|--------------------------------------------------------------------|
|--------------------------------------------------------------------|


   .  . . . . . . . . . . .   . . . . . . . . . . .
|--------------------------------------------------------------------|
|--------------------------------------------------------------------|
|--------------------------------------------------------------------|gtr3
|--------------------------------------------------------------------|
|---------------------------------------------------4------2----5----|
|--2--2-2-2-2-2-2-2-2-2-2-2---2-2-2-2-2-2-2-2-2-2-2-2------0----3----|


___Continue___________________________________________________________

|---------------------------------21-19-17--22h23p22h23p22h23p22h23--|
|--19h20p19h20p19h20p19h20p19h20p------------------------------------|
|--------------------------------------------------------------------|gtr1
|--------------------------------------------------------------------|
|--------------------------------------------------------------------|
|--------------------------------------------------------------------|



   .  . . . . . . . . . . . . . . . . . . . . . .
|--------------------------------------------------------------------|
|--------------------------------------------------------------------|
|--------------------------------------------------------------------|gtr3
|---------------------------------------------------6----7-----------|
|---------------------------------------------------4----5----5------|
|--3--3-3-3-3-3-3-3-3-3-3-3-3-3-2-2-2-2-2-2-2-2-3-------------3------|

___Continue___________________________________________________________

                              .
|--20----------------------------------------------------------------|
|------18------------------------------------------------------------|
|---------17--15-----------------------17-15~------------------------|gtr1
|----------------18--17--15------15----------------------------------|
|----------------------------18-----15-------------------------------|
|--------------------------------------------------------------------|



   .  . . . . . . . . . . .   . . . . . . . . . . .
|--------------------------------------------------------------------|
|--------------------------------------------------------------------|
|--------------------------------------------------------------------|gtr3
|--------------------------------------------------------------------|
|---------------------------------------------------4------2----5----|
|--2--2-2-2-2-2-2-2-2-2-2-2---2-2-2-2-2-2-2-2-2-2-2-2------0----3----|


___Continue___________________________________________________________

|--17~--------------------18-20-------20~---201816----20--18---------|
|----------18-20-21-20-21-------21-18-------------18-----------------|
|-------17------------------------------------------17---------------|gtr1
|--------------------------------------------------------------------|
|--------------------------------------------------------------------|
|--------------------------------------------------------------------|


   .  . . . . . . . . . . .   . . . . . . . . . . .
|--------------------------------------------------------------------|
|--------------------------------------------------------------------|
|--------------------------------------------------------------------|gtr3
|--------------------------------------------------------------------|
|---------------------------------------------------4------2----5----|
|--2--2-2-2-2-2-2-2-2-2-2-2---2-2-2-2-2-2-2-2-2-2-2-2------0----3----|

___Continue___________________________________________________________


|--14-16-------------------------------------------------------------|
|--------14-15-12-14-10-12-------------------------------------------|
|--------------------------------------------------------------------|gtr1
|--------------------------------------------------------------------|
|--------------------------------------------------------------------|
|--------------------------------------------------------------------|

======================================================================
======================================================================
Play Riff A 2x

___Begin Rif F________________________________________________________

|-------------------------------------8---11~--10-8-7h8p7------------|
|-------------------------------8-8-8---8-----------------10\8-------|
|--------------------------------------------------------------11\8--|gtr1
|-------2--5-4h5p4--2-0--"-------------------------------------------|
|--3-"---------------------------------------------------------------|
|--------------------------------------------------------------------|




|--------------------------------------------------------------------|
|--------------------------------------------------------------------|
|--------------------------------------------------------------------|
|--5-----------4---------------5----------------4--------------------|gtr2
|--3-----------2---------------3----------------2--------------------|
|--------------------------------------------------------------------|




|---------------|
|---------------|
|-7--5-4--------|
|---------7\----|
|---------------|
|---------------|

======================================================================
Play Riff C 4x
Play Riff D 5x

3.) Empty Words

Gtr I (D G C F A D) - 'Chuck Schuldiner'
Gtr II (D G C F A D) - 'Bobby Koelble'
Gtr III (D G C F A D) - 'Chuck Schuldiner (Clean)'

   Intro
    Melotic Metal Q=100
   4/4
    Gtr III
    E E E E E E E E    E  H.       +E    E E E E E E E E   E  E E H    +E    4x
||------------------|------------------|-----------------|-------------------||
||o-----------------|------------------|-----------------|------------------o||
||------9-----9---9-|----12-------(12)-|-----9-----9---7-|---10---9----(9)---||
||----7-----7-------|------------------|---7-----7-------|-------------------||
||o-0-----8-----7---|-10---------------|-0-----8-----5---|-8----7-----------o||
||------------------|------------------|-----------------|-------------------||


 Verse
  Moderate Metal Q=121
  $
  C5B5G5G#F5     C5B5G5G#5        C5B5G5G#E5
  Gtr I
                     PM~~~~~~~~~      PM|                ~
  E E E E H      E E E H    +E    E E E E H      E E E E H
|--------------|----------------|--------------|--------------|
|--------------|----------------|--------------|--------------|
|--------------|----------------|--------------|--------------|
|--------------|----------------|--------------|-3s5-5s6-5----|
|-3-2-----3----|-3-2------------|-3-2-----2----|--------------|
|-----3-4-1----|-----3-4----(4)-|-----3-4-0----|--------------|
|
| Gtr II
|                    PM               PM|                ~
| E E E E H      E E E H    +E    E E E E H      E E E E H
|--------------|----------------|--------------|--------------|
|--------------|----------------|--------------|-6s8-8s9-8----|
|--------------|----------------|--------------|--------------|
|-5-4----------|-5-4------------|-5-4----------|--------------|
|-3-2-5-6-3----|-3-2-5-6----(6)-|-3-2-5-6-2----|--------------|
|-----3-4-1----|-----3-4----(4)-|-----3-4-0----|--------------|


  C5B5G5G#F5     C5B5G5G#5        C5B5G5G#E5
                     PM~~~~~~~~~      PM|                 ~~
  E E E E H      E E E H    +E    E E E E H      E E E E  H
|--------------|----------------|--------------|---------------|
|--------------|----------------|--------------|---------------|
|--------------|----------------|--------------|---------------|
|--------------|----------------|--------------|-3s5-5s6--8----|
|-3-2-----3----|-3-2------------|-3-2-----2----|---------------|
|-----3-4-1----|-----3-4----(4)-|-----3-4-0----|---------------|
|
|                    PM               PM|                 ~~
| E E E E H      E E E H    +E    E E E E H      E E E E  H
|--------------|----------------|--------------|---------------|
|--------------|----------------|--------------|-6s8-8s9-11----|
|--------------|----------------|--------------|---------------|
|-5-4----------|-5-4------------|-5-4----------|---------------|
|-3-2-5-6-3----|-3-2-5-6----(6)-|-3-2-5-6-2----|---------------|
|-----3-4-1----|-----3-4----(4)-|-----3-4-0----|---------------|


  C5B5G5G#F5     C5B5G5G#5        C5B5G5G#E5
                     PM~~~~~~~~~      PM|                ~
  E E E E H      E E E H    +E    E E E E H      E E E E H
|--------------|----------------|--------------|--------------|
|--------------|----------------|--------------|--------------|
|--------------|----------------|--------------|--------------|
|--------------|----------------|--------------|-3s5-5s6-5----|
|-3-2-----3----|-3-2------------|-3-2-----2----|--------------|
|-----3-4-1----|-----3-4----(4)-|-----3-4-0----|--------------|
|
|                    PM               PM|                ~
| E E E E H      E E E H    +E    E E E E H      E E E E H
|--------------|----------------|--------------|--------------|
|--------------|----------------|--------------|-6s8-8s9-8----|
|--------------|----------------|--------------|--------------|
|-5-4----------|-5-4------------|-5-4----------|--------------|
|-3-2-5-6-3----|-3-2-5-6----(6)-|-3-2-5-6-2----|--------------|
|-----3-4-1----|-----3-4----(4)-|-----3-4-0----|--------------|


   Pre Chorus
    Q=124
    A5         E5         A5        F5              C#5         G#5
                           PM---------|                              ~
    W          W           E E E  E E E  E T  T S    E  E  E  E E  E Q
||-----------|----------|-------------------------|-----------------------||
||o----------|----------|---------------10-9h10p9-|----13-12-10-9--------o||
||-----------|----------|--------10-9-7-----------|-10------------10-9----||
||--7--------|-2--------|-10-9-7------------------|-----------------------||
||o-7--------|-2--------|-------------------------|----------------------o||
||--5--------|-0--------|-------------------------|-----------------------||
|
|   W          W           H        H                H          H
||-----------|----------|-------------------------|-----------------------||
||o----------|----------|-------------------------|----------------------o||
||-----------|----------|-------------------------|--6--------------------||
||--7--------|-2--------|--7--------3-------------|--6----------6---------||
||o-7--------|-2--------|--7--------3-------------|--4----------6--------o||
||--5--------|-0--------|--5--------1-------------|-------------4---------||


  A5         E5
  W          W
|----------|------|
|----------|------|
|----------|------|
|-7--------|-2----|
|-7--------|-2----|
|-5--------|-0----|
|
| W          W
|----------|------|
|----------|------|
|----------|------|
|-7--------|-2----|
|-7--------|-2----|
|-5--------|-0----|


  A5                      F5
   T           T           T           T
   S  S  S  S  S  S  S  S  S  S  S  S  S  S  S  S
|-19-15p13p12-19-15p13p12-19-15p13p12-19-15p13p12-|
|-------------------------------------------------|
|-------------------------------------------------|
|-------------------------------------------------|
|-------------------------------------------------|
|-------------------------------------------------|
|
|  H                       H
|-------------------------------------------------|
|-------------------------------------------------|
|-------------------------------------------------|
|--7-----------------------3----------------------|
|--7-----------------------3----------------------|
|--5-----------------------1----------------------|


  C#5                     G#5
   T           T
   S  S  S  S  S  S  S  S  Q       +Q
|-19-15p13p12-19-15p13p12-20b22===(20)r==|
|----------------------------------------|
|----------------------------------------|
|----------------------------------------|
|----------------------------------------|
|----------------------------------------|
|
|  H                       H
|----------------------------------------|
|----------------------------------------|
|--6-------------------------------------|
|--6-----------------------6-------------|
|--4-----------------------6-------------|
|--------------------------4-------------|


  A5                                    E5
                                                           ~~~~~~~
   |--3--|  |--3--|  |--3--|  |--3--|    |--3--|  |--3--|
   E  E  E  E  E  E  E  E  E  E  E  E    E  E  E  E  E  E  E  +Q    +E
|-20-20-20-20s19-19-19s17-13-13s12-12-|-12s10-10-10s12-12-12-(12)--(12)\-|
|-------------------------------------|----------------------------------|
|-------------------------------------|----------------------------------|
|-------------------------------------|----------------------------------|
|-------------------------------------|----------------------------------|
|-------------------------------------|----------------------------------|
|
|  W                                     W
|-------------------------------------|----------------------------------|
|-------------------------------------|----------------------------------|
|-------------------------------------|----------------------------------|
|--7----------------------------------|--2-------------------------------|
|--7----------------------------------|--2-------------------------------|
|--5----------------------------------|--0-------------------------------|


  A5   F5     C#5  G#
                   ~
  H    H      H    H
|-----------|-----------|
|-----------|-----------|
|-----------|-6---------|
|-7----3----|-6---------|
|-7----3----|-4---------|
|-5----1----|------4----|
|
| H    H      H    H
|-----------|-----------|
|-----------|-----------|
|-----------|-6---------|
|-7----3----|-6----6----|
|-7----3----|-4----6----|
|-5----1----|------4----|


    Q=116
    Gtrs I, II
    PM----| ~  PM----------------------| ~  PM------------|
    S S S S Q  S S S S S S S S   S S S S Q  S S S S S S S S
||-----------------------------|-----------------------------||
||o----------------------------|----------------------------o||
||-----------------------------|-----------------------------||
||-----------------------------|-----------------------------||
||o--------------------7-8-7-5-|--------------------5-6-5-3-o||
||--5-7-8-7-6--5-7-8-7---------|-4-6-7-6-5--4-6-7-6----------||


                    F5
    S S S S S S S S Q  S S S S
||-----------------------------|
||o----------------------------|
||-----------------------------|
||------------------3----------|
||o-----------------3----------|
||--0-0-0-0-0-0-0-0-1--0-0-0-0-|


  1.                        2.
          G5         G#5            G5
                                                ~~~
  S S S S Q  S S S S Q      S S S S Q  S S S S  Q
|------------------------||-------------------------|
|-----------------------o||-------------------------|
|------------------------||-------------------------|
|---------5----------6---||---------5---------------|
|---------5----------6--o||---------5----------[6]--|
|-0-0-0-0-3--0-0-0-0-4---||-0-0-0-0-3--0-0-0-0------|


    PM----| ~  PM----------------------| ~  PM------------|
    S S S S Q  S S S S S S S S   S S S S Q  S S S S S S S S
||-----------------------------|-----------------------------||
||o----------------------------|----------------------------o||
||-----------------------------|-----------------------------||
||-----------------------------|-----------------------------||
||o--------------------7-8-7-5-|--------------------5-6-5-3-o||
||--5-7-8-7-6--5-7-8-7---------|-4-6-7-6-5--4-6-7-6----------||


                    F5
    S S S S S S S S Q  S S S S
||-----------------------------|
||o----------------------------|
||-----------------------------|
||------------------3----------|
||o-----------------3----------|
||--0-0-0-0-0-0-0-0-1--0-0-0-0-|


  1.                        2.
          G5         G#5            G5
                                                ~~~
  S S S S Q  S S S S Q      S S S S Q  S S S S  Q
|------------------------||-------------------------|
|-----------------------o||-------------------------|
|------------------------||-------------------------|
|---------5----------6---||---------5---------------|
|---------5----------6--o||---------5----------[6]--|
|-0-0-0-0-3--0-0-0-0-4---||-0-0-0-0-3--0-0-0-0------|


  Q=112
  E5  F5  D5   G5    E5 F5
 3/4          5/8
  Gtr I
  H.            Q..      E.
|------------|--------------|
|------------|--------------|
|------------|--------------|
|------------|--------------|
|------------|--------------|
|------------|--------------|
|
| Gtr II
| Q    Q  Q     Q    E.  E.
|------------|--------------|
|------------|--------------|
|------------|--------------|
|-9---10--7--|-12----9--10--|
|-7----8--5--|-10----7---8--|
|------------|--------------|


  E5      F5       D5        G5       E5     F5
 3/4                        5/8
             PM------------------------------------|
  S S S S  S S S S S S S S    S S S S S  S S  S  S S
|--------------------------|-------------------------|
|--------------------------|-------------------------|
|--------------------------|-------------------------|
|--------------------------|-------------------------|
|--------------------------|-------------------------|
|---0-0-0--0-0-0-0-0-0-0-0-|--0-0-0-0-0--0-0--0--0-0-|
|
| Q        Q       Q          Q       E.      E.
|--------------------------|-------------------------|
|--------------------------|-------------------------|
|--------------------------|-------------------------|
|-9-------10-------7-------|-12-------9------10------|
|-7--------8-------5-------|-10-------7-------8------|
|--------------------------|-------------------------|


    E5               F5               D5
   3/4
    Gtr I
     T                T                T
     T T T T T T T T  T T T T T T T T  T T T T T T T T
||--12p7p5h7p5h7p5h7-13p7p5h7p5h7p5h7-10p7p5h7p5h7p5h7-|
||o----------------------------------------------------|
||-----------------------------------------------------|
||-----------------------------------------------------|
||o----------------------------------------------------|
||-----------------------------------------------------|
|
|   Gtr II
|    Q                Q                Q
||-----------------------------------------------------|
||o----------------------------------------------------|
||-----------------------------------------------------|
||---9---------------10----------------7---------------|
||o--7----------------8----------------5---------------|
||-----------------------------------------------------|


  G5               E5           F5
 5/8
   T                T            T
   T T T T T T T T  T T T T T T  T T T T T T
|-15p7p5h7p5h7p5h7-12p7p5h7p5h7-13p7p5h7p5h7---||
|---------------------------------------------o||
|----------------------------------------------||
|----------------------------------------------||
|---------------------------------------------o||
|----------------------------------------------||
|
|  Q                E.           E.
|----------------------------------------------||
|---------------------------------------------o||
|----------------------------------------------||
|-12----------------9-----------10-------------||
|-10----------------7------------8------------o||
|----------------------------------------------||


   Chorus
     Fast Metal Q=160
To Coda
     E5                     C/E
   4/4
     Gtrs I, II
          PM------------|         PM----|     ~~     ~~       ~~     ~~
     H    S S S S S S S S    H    E E E E   E Q.   E Q.     E Q.   E Q.   4x
||------------------------|---------------|---------------|---------------||
||o-----------------------|---------------|---------------|--------------o||
||------------------------|---------------|--------7------|---------------||
||---9--------------------|-10------------|-5--------5----|-7------9------||
||o--7--------------------|--7------------|---3-----------|---5------7---o||
||--------0-0-0-0-0-0-0-0-|-------0-0-0-0-|---------------|---------------||


 Solo - Schuldiner
  Gtr I
  ~~~                                  ~
  H..                           S  S   W
|------------------------------------|---------------------------------|
|------------------------------------|---------------------------------|
|------------------------------------|-7-------------------------------|
|-7-----------------------------9h10-|---------------------------------|
|------------------------------------|---------------------------------|
|------------------------------------|---------------------------------|
|
| Gtr II
| S   S S S S S S S S S S S S S S  S   S S S S S S S S S S S S S S S S
|------------------------------------|---------------------------------|
|------------------------------------|---------------------------------|
|------------------------------------|---------------------------------|
|------------------------------------|---------------------------------|
|-0---0-0-0-0-0-0-0-0-0-0-0-0-0-0--0-|-1-1-1-1-1-1-1-1-1-1-1-1-1-1-1-1-|
|------------------------------------|---------------------------------|


             C5        C5    C5                D5        D5        D5
   ~~~~                               ~~~
   H..                        S  S    H.                    +S   S  S  S
|----------------------------------|-------------------------------------|
|-12-------------------------12h13-|-------------------------------------|
|----------------------------------|-10--------------------(10)-14-16-17-|
|----------------------------------|-------------------------------------|
|----------------------------------|-------------------------------------|
|----------------------------------|-------------------------------------|
|
|  S   S S S E S S S S E S S  E       S  S S S E S S S S E   S   S  E
|----------------------------------|-------------------------------------|
|----------------------------------|-------------------------------------|
|----------------------------------|-------------------------------------|
|------------5---------5------5----|-----------7---------7----------7----|
|--3---3-3-3-3-3-3-3-3-3-3-3--3----|--5--5-5-5-5-5-5-5-5-5---5---5--5----|
|----------------------------------|-------------------------------------|


   S  S  S  S  S  S  S  S  S  S  S  S  S  S  S  S
|-------------------------------------------------|
|-------------------------------------------------|
|-16-14-16-14-12----12-14-12-14-16-14-16-17-16-17-|
|----------------15-------------------------------|
|-------------------------------------------------|
|-------------------------------------------------|
|
|  S  S  S  S  S  S  S  S  S  S  S  S  S  S  S  S
|-------------------------------------------------|
|-------------------------------------------------|
|-------------------------------------------------|
|-------------------------------------------------|
|--0--0--0--0--0--0--0--0--0--0--0--0--0--0--0--0-|
|-------------------------------------------------|


   S  S  S  S  S  S  S  S  S  S  S  S  S  S  S  S
|----------------------------15----15-17-15-17-19-|
|-15----15-17-15-17-18-17-18----18----------------|
|----17-------------------------------------------|
|-------------------------------------------------|
|-------------------------------------------------|
|-------------------------------------------------|
|
|  S  S  S  S  S  S  S  S  S  S  S  S  S  S  S  S
|-------------------------------------------------|
|-------------------------------------------------|
|-------------------------------------------------|
|-------------------------------------------------|
|--1--1--1--1--1--1--1--1--1--1--1--1--1--1--1--1-|
|-------------------------------------------------|


               C5        C5       C5                   D5        D5    D5
   H.                       S   S  S  S    W
|-15b17====================15r-17h19h20-|-20b22===========================|
|---------------------------------------|---------------------------------|
|---------------------------------------|---------------------------------|
|---------------------------------------|---------------------------------|
|---------------------------------------|---------------------------------|
|---------------------------------------|---------------------------------|
|
|  S     S S S E S S S S E  S   S  E       S     S S S E S S S S E S S E
|---------------------------------------|---------------------------------|
|---------------------------------------|---------------------------------|
|---------------------------------------|---------------------------------|
|--------------5---------5---------5----|--------------7---------7-----7--|
|--3-----3-3-3-3-3-3-3-3-3--3---3--3----|--5-----5-5-5-5-5-5-5-5-5-5-5-5--|
|---------------------------------------|---------------------------------|


   ~~~~~~~~~~~~~~~~~~~~~~~~~~~~~~~~~~~~~~~~~~~~~~~~~~~~~~~
   H                H                  H                Q        E     E
|-20---------------20---------------|-20---------------20-------20r---22b24====|
|-----------------------------------|------------------------------------------|
|-----------------------------------|------------------------------------------|
|-----------------------------------|------------------------------------------|
|-----------------------------------|------------------------------------------|
|-----------------------------------|------------------------------------------|
|
|  S S S S S S S S  S S S S S S S S    S S S S S S S S  S S S S  S  S  S     S
|-----------------------------------|------------------------------------------|
|-----------------------------------|------------------------------------------|
|-----------------------------------|------------------------------------------|
|-----------------------------------|------------------------------------------|
|--0-0-0-0-0-0-0-0--0-0-0-0-0-0-0-0-|--1-1-1-1-1-1-1-1--1-1-1-1--1--1--1-----1-|
|-----------------------------------|------------------------------------------|


                C5            C5      C5             D5           D5      D5
                                                                   ~~~
   +E.      +Q       +S   E    E  E    E    E    E    E  E    E    Q.
|-(22)-----(22)r====(22)-20---19-17------|----------------------------------|
|-------------------------------------20-|-18---17--------------------------|
|----------------------------------------|-----------19-17---16S==14--------|
|----------------------------------------|----------------------------------|
|----------------------------------------|----------------------------------|
|----------------------------------------|----------------------------------|
|
|   S  S S   S  E S   S   S S  E  S S  E    S S  S S  E  S S  S S  E  S S E
|----------------------------------------|----------------------------------|
|----------------------------------------|----------------------------------|
|----------------------------------------|----------------------------------|
|---------------5--------------5-------5-|------------7------------7------7-|
|---3--3-3---3--3-3---3---3-3--3--3-3--3-|--5-5--5-5--5--5-5--5-5--5--5-5-5-|
|----------------------------------------|----------------------------------|


             ~~~                                                         ~
   E    E    Q.           S S  S E   S   S S  S E   S S S  S  E   S S  S E
|--------------------------------------|-------------------------------------|
|--------------------------------------|-------------------------------------|
|-14---16---16-------------------7-----|--------9------------10-----9h10p9---|
|-------------------------7h9h10-------|-7h9h10-------7h9h10-----------------|
|--------------------------------------|-------------------------------------|
|--------------------------------------|-------------------------------------|
|
|  S S  S S  S  S S S S S S S  S S S S   S S  S S S S S S  S  S S S S  S S S
|--------------------------------------|-------------------------------------|
|--------------------------------------|-------------------------------------|
|--------------------------------------|-------------------------------------|
|--------------------------------------|-------------------------------------|
|--0-0--0-0--0--0-0-0-0-0-0-0--0-0-0-0-|-1-1--1-1-1-1-1-1--1--1-1-1-1--1-1-1-|
|--------------------------------------|-------------------------------------|


            C5         C5    C5              D5        D5    D5
   ~~~                                         ~
  +Q.         E    E   E E   S  S   S S  E   E H             +E
|---------------------------------|-------------------------------|
|---------------------------------|-------------------------------|
|-(9)---------9---10---9-7---9h10p|=9p7---------------------------|
|---------------------------------|-----10---9-7-------------(7)--|
|---------------------------------|-------------------------------|
|---------------------------------|-------------------------------|
|
|  S  S S S E S S  S S E S S E      S S  S S E S S S S E S S  E
|---------------------------------|-------------------------------|
|---------------------------------|-------------------------------|
|---------------------------------|-------------------------------|
|-----------5----------5-----5----|----------7---------7------7---|
|--3--3-3-3-3-3-3--3-3-3-3-3-3----|-5-5--5-5-5-5-5-5-5-5-5-5--5---|
|---------------------------------|-------------------------------|


    Q=180
    A5                           E5
   9/8
                 ~~~~~~~~~~~~~~~~~~~~~~~~~~~~~~~~~
     E.  E.  E.  Q.    +E.        +W          +E
||-----------------------------|------------------|
||o-13--12--10--12----(12)-----|-(12)--------(12)-|
||-----------------------------|------------------|
||-----------------------------|------------------|
||o----------------------------|------------------|
||-----------------------------|------------------|
|
|    W                     +E      W          +E
||-----------------------------|------------------|
||o----------------------------|------------------|
||-----------------------------|------------------|
||-----------------------------|------------------|
||o--7---------------------(7)-|---2----------(2)-|
||---5---------------------(5)-|---0----------(0)-|


  F5                            G5
                                 ~~~~~~~~~~~~~~
   E.  E.  E.  E.  E.  E.        W         +E
|---------------------10------|-----------------||
|-13--12--10--12--13----------|-12--------(12)-o||
|-----------------------------|-----------------||
|-----------------------------|-----------------||
|-----------------------------|----------------o||
|-----------------------------|-----------------||
|
|  W                      +E     W         +E
|-----------------------------|-----------------||
|-----------------------------|----------------o||
|-----------------------------|-----------------||
|-----------------------------|-----------------||
|--3----------------------(3)-|--5---------(5)-o||
|--1----------------------(1)-|--3---------(3)--||


    Q=176
    E5                       F5
           ~~                 ~~
     E  E  H     +E   E  E    W         +E
||-------------------------|----------------|
||o-12h13p12----(12)-12h13-|-10--------(10)-|
||-------------------------|----------------|
||-------------------------|----------------|
||o------------------------|----------------|
||-------------------------|----------------|
|
|    H.          +Q.          W         +E
||-------------------------|----------------|
||o------------------------|----------------|
||-------------------------|----------------|
||-------------------------|----------------|
||o--2-----------(2)-------|--3---------(3)-|
||---0-----------(0)-------|--1---------(1)-|


  G5                       F5
         ~~                 ~~
   E  E  H     +E   E  E    W         +E
|------------------------|-10--------(10)---||
|-12h13p12----(12)-12h13-|-----------------o||
|------------------------|------------------||
|------------------------|------------------||
|------------------------|-----------------o||
|------------------------|------------------||
|
|  H.          +Q.          W         +E
|------------------------|------------------||
|------------------------|-----------------o||
|------------------------|------------------||
|------------------------|------------------||
|--5-----------(5)-------|--3---------(3)--o||
|--3-----------(3)-------|--1---------(1)---||


    E5             F5
    Gtr I
    W        +E     W         +E
||---------------|----------------|
||o--------------|----------------|
||---------------|----------------|
||--9--------(9)-|-10--------(10)-|
||o-7--------(7)-|--8---------(8)-|
||---------------|----------------|
|
|   Gtr II
|   W        +E     W         +E
||---------------|----------------|
||o--------------|----------------|
||---------------|----------------|
||---------------|----------------|
||o-2--------(2)-|--3---------(3)-|
||--0--------(0)-|--1---------(1)-|


                   1.                  2.
  G5               F5                  F5
   W         +E     W         +E        Q  H..
|----------------|-----------------||-------------|
|----------------|----------------o||-------------|
|----------------|-----------------||-------------|
|-12--------(12)-|-10--------(10)--||--10---------|
|-10--------(10)-|--8---------(8)-o||---8---------|
|----------------|-----------------||-------------|
|
|  W         +E     W         +E        Q  H..
|----------------|-----------------||-------------|
|----------------|----------------o||-------------|
|----------------|-----------------||-------------|
|----------------|-----------------||-------------|
|--5---------(5)-|--3---------(3)-o||---3---------|
|--3---------(3)-|--1---------(1)--||---1---------|


   Chorus
     Q=160
D.S. al Coda
    &
     E5                     C/E
   4/4
     Gtrs I, II
          PM------------|         PM----|     ~~     ~~       ~~     ~~
     H    S S S S S S S S    H    E E E E   E Q.   E Q.     E Q.   E Q.   9x
||------------------------|---------------|---------------|---------------||
||o-----------------------|---------------|---------------|--------------o||
||------------------------|---------------|--------7------|---------------||
||---9--------------------|-10------------|-5--------5----|-7------9------||
||o--7--------------------|--7------------|---3-----------|---5------7---o||
||--------0-0-0-0-0-0-0-0-|-------0-0-0-0-|---------------|---------------||

4.) Sacred Serenity

Drum and bass intro
|------------------|
|------------------|
|------------------|
|------------------|

Riff A
|-13-12-10------------------13-12-10---------------------|
|----------13-12-10------------------13-13-12-10---------|
|-------------------12-10-9----------------------12-10-9-|Gtr
|--------------------------------------------------------| I
|--------------------------------------------------------|
|--------------------------------------------------------|
|                                                        |
|--------------------------------------------------------|
|--------------------------------------------------------|
|-9------------------------------------------------------|Gtr
|-9------------------------------------------------------|II
|-7------------------------------------------------------|
|--------------------------------------------------------|

Continuation of Riff A
|-13-12-10------------------13-12-10---------------------|
|----------13-12-10------------------13-13-12-10---------|
|-------------------12-10-9----------------------12-10-9-|Gtr
|--------------------------------------------------------| I
|--------------------------------------------------------|
|--------------------------------------------------------|
|                                                        |
|--------------------------------------------------------|
|--------------------------------------------------------|
|-10-----------------------------------------------------|Gtr
|-10-----------------------------------------------------|II
|-8------------------------------------------------------|
|--------------------------------------------------------|

Continuation of Riff A
|-13-12-10------------------13-12-10---------------------|
|----------13-12-10------------------13-13-12-10---------|
|-------------------12-10-9----------------------12-10-9-|Gtr
|--------------------------------------------------------| I
|--------------------------------------------------------|
|--------------------------------------------------------|
|                                                        |
|--------------------------------------------------------|
|--------------------------------------------------------|
|-12-----------------------------------------------------|Gtr
|-12-----------------------------------------------------|II
|-10-----------------------------------------------------|
|--------------------------------------------------------|

Continuation of Riff A
|-13-12-10------------------13-12-10---------------------|
|----------13-12-10------------------13-13-12-10---------|
|-------------------12-10-9----------------------12-10-9-|Gtr
|--------------------------------------------------------| I
|--------------------------------------------------------|
|--------------------------------------------------------|
|                                                        |
|--------------------------------------------------------|
|--------------------------------------------------------|
|-10-----------------------------------------------------|Gtr
|-10-----------------------------------------------------|II
|-8------------------------------------------------------|
|--------------------------------------------------------|

Continuation of Riff A
|-13-12-10------------------13-12-10---------------------|
|----------13-12-10------------------13-13-12-10---------|
|-------------------12-10-9----------------------12-10-9-|Gtr
|--------------------------------------------------------| I
|--------------------------------------------------------|
|--------------------------------------------------------|
|                                                        |
|--------------------------------------------------------|
|--------------------------------------------------------|
|-9------------------------------------------------------|Gtr
|-9------------------------------------------------------|II
|-7------------------------------------------------------|
|--------------------------------------------------------|

Continuation of Riff A
|-13-12-10------------------13-12-10---------------------|
|----------13-12-10------------------13-13-12-10---------|
|-------------------12-10-9----------------------12-10-9-|Gtr
|--------------------------------------------------------| I
|--------------------------------------------------------|
|--------------------------------------------------------|
|                                                        |
|--------------------------------------------------------|
|--------------------------------------------------------|
|-10-----------------------------------------------------|Gtr
|-10-----------------------------------------------------|II
|-8------------------------------------------------------|
|--------------------------------------------------------|

Continuation of Riff A
|-13-12-10------------------13-12-10---------------------|
|----------13-12-10------------------13-13-12-10---------|
|-------------------12-10-9----------------------12-10-9~|Gtr
|--------------------------------------------------------| I
|--------------------------------------------------------|
|--------------------------------------------------------|
|                                                        |
|--------------------------------------------------------|
|--------------------------------------------------------|
|-7------------------------------------------------------|Gtr
|-7------------------------------------------------------|II
|-5------------------------------------------------------|
|--------------------------------------------------------|

Play Riff A once

Fill A
|------------------------------------------------------------|
|------------------------------------------------------------|
|-16-16-16~---17-17-17~---16-16-16~---14-14-14~---14/16--16~-|Gtr
|------------------------------------------------------------| I
|------------------------------------------------------------|
|------------------------------------------------------------|
|                                                            |
|------------------------------------------------------------|
|------------------------------------------------------------|
|------------------------------------------------------------|Gtr
|-9-----------10----------9-----------7-----------9----------|II
|-7-----------8-----------7-----------5-----------7----------|
|------------------------------------------------------------|

Play Fill A once

SOLO(Chuck Schuldiner)
|----------------------------------17---20-19----------------------------|
|------------------------------18----18------18-17-15-17-18-17-15--------|
|-16/17--17~---------------17-------------------------------------17-16~-|Gtr
|--------------16-17-19~-------------------------------------------------| I
|------------------------------------------------------------------------|
|------------------------------------------------------------------------|

Very fast tremolo picking
|-13"-12"-10"----------------------12"-13"-12"-10"---10"-12"-13"-17---17---|
|------------13"-12"-10"--------------------------13"------------20fb-20fb~|
|-----------------------12"-10"-9~-----------------------------------------|Gtr
|--------------------------------------------------------------------------| I
|--------------------------------------------------------------------------|
|--------------------------------------------------------------------------|

Riff B(Played during Chuck's solo)
|-----|-----|-----|-----|-----|-----|
|-----|-----|-----|--3--|-----|-----|
|--4--|--7--|-----|--5--|--4--|--7--|Gtr
|--2--|--5--|--8--|--5--|--2--|--5--|II
|--2--|--5--|--8--|--5--|--2--|--5--|
|--0--|--3--|--6--|--3--|--0--|--3--|

Riff C
|-------------------------------|---------------------------------|
|-------------------------------|---------------------------------|
|-------------------------------|---------------------------------|Gtr
|-------------------------------|-----------------------5-4-------|I&II
|-3-3-3-2---3-3-3-2---3-2-------|-3--333-2---3--333-2---3-2-5-----|
|-1-1-1-0---1-1-1-0-------4-3~--|-1--111-0---1--111-0-------3-4~--|
. . .     . . .                 .  ...     .  ...     . . .

continuation of Riff C
|-------------------------------|---------------------------------|
|-------------------------------|---------------------------------|
|-------------------------------|---------------------------------|Gtr
|-------------------------------|-----------------------5-4-------|I&II
|-3-3-3-2---3-3-3-2---3-2-------|-333333-2---333333-2---3-2-5-----|
|-1-1-1-0---1-1-1-0-------4-3~--|-111111-0---111111-0-------3-4~--|
. . .     . . .                 ......     ......     . . .

Play Riff C twice

Riff D (guitar 1)
|------------------------------------|------------------------------------|
|---10h12h13~----8h10h12~----7h8h10~-|---10h12h13~----8h10h12~----7h8h10~-|
|------------------------------------|------------------------------------|Gtr
|------------------------------------|------------------------------------| I
|------------------------------------|------------------------------------|
|------------------------------------|------------------------------------|
|                                                                         |
|------------------------------------|------------------------------------|
|------------------------------------|------------------------------------|
|------------------------------------|------------------------------------|Gtr
|------------------------------------|------------------------------------|II
|-2----------------------------------|-3----------------------------------|
|-0----------------------------------|-1----------------------------------|

Play Riff D once

Riff E
|-------------------------------------------------------------------------|
|-------------------------------------------------------------------------|
|-------------------------------------------------------------------------|Gtr
|-------------------------------------------------------------------------|I&II
|-------444444555555------444444------------444444555555------4444445-----|
|-222222------------333333------333333222222------------333333------3-----|
..................................................................

Continuation of Riff E
|--------------------------------------------------------------------------|
|--------------------------------------------------------------------------|
|-------------------------------------------------------------7-----6------|Gtr
|-------------------------------------------------------5-----5-----4------|I&II
|-------444444555555------444444------------4444445555555-----5-----4------|
|-222222------------333333------333333222222------------3------------------|
......................................................

continuation of Riff E
|--------------------------------------------------------------------------|
|--------------------------------------------------------------------------|
|--------------------------------------------------------------------------|Gtr
|--------------------------------------------------------------------------|I&II
|-------444444555555------444444------------444444555555------444444-------|
|-222222------------333333------333333222222------------333333------333333-|
........................................................................

Continuation of Riff E
|--------------------------------------------------------------------------|
|--------------------------------------------------------------------------|
|-------------------------------------------------------------7-----6------|Gtr
|-------------------------------------------------------5-----5-----4------|I&II
|-------444444555555------444444------------4444445555555-----5-----4------|
|-222222------------333333------333333222222------------3------------------|
  ......................................................

Play Riff E once

Riff F
|----------------------------------------------------13-12---------------|
|-13-12-10-12~--------------------15---13---12--13~-------13-12--15fb~~~-|
|------------------------------------------------------------------------|Gtr
|------------------------------------------------------------------------| I
|------------------------------------------------------------------------|
|------------------------------------------------------------------------|
|                                                                        |
|------------------------------------------------------------------------|
|------------------------------------------------------------------------|
|-------5-------------7-----5----------------5~------10-9----------------|Gtr
|-7--------------9----------------9-----7-----------------10-9---7-------|II
|---000---000000--000---000---000---000---000----------------------8-7---|
|------------------------------------------------------------------------|
   ...   ......  ...   ...   ...   ...   ...

Play Riff F twice

SOLO(Chuck Schuldiner)
|---------------------------------------------------------|
|---------------------------------------------------------|
|-9~--------9fb~~------(9)~~~~----9--10--9--7--9----------|Gtr
|---------------------------------------------------10--9-| I
|---------------------------------------------------------|
|---------------------------------------------------------|

|-12--13--12--12h13p12--10--12------------------------------------|
|-------------------------------13-12-------12--12--12~-------13~-|
|-----------------------------------------------------------------|Gtr
|-----------------------------------------------------------------| I
|-----------------------------------------------------------------|
|-----------------------------------------------------------------|

|--------------------------------------------------------------------------|
|-----------------10-13-12-10-12-10----------------------10-13-12-10-12-13-|
|-9-10-9-7-9-10-12-----------------12-10-9-10-9-7-9-10-12------------------|Gtr
|--------------------------------------------------------------------------| I
|--------------------------------------------------------------------------|
|--------------------------------------------------------------------------|

|------------------------------|
|------------------------------|
|-9-10-12-12-10-9-7-9----------|Gtr
|--------------------12-10-9-9-| I
|------------------------------|
|------------------------------|

|-------------------------------------------------------------------|
|---------------------------------------------------------12-12-12~-|
|-9~----------------------------------------------------------------|Gtr
|--------10--9--7-----12~--------12--10--9--10--9--7--9~------------| I
|-------------------------------------------------------------------|
|-------------------------------------------------------------------|

Very fast tremolo picking
|--------------------------------12"-13-13-13-12-12-12-10-10-|
|-12-12-13-13-12-12-10-10-12-12~-----------------------------|
|------------------------------------------------------------|Gtr
|------------------------------------------------------------|  I
|------------------------------------------------------------|
|------------------------------------------------------------|

Very fast tremolo picking
|-19"-20-20-19-19-17-17-19-19-17-17-----------------------------------------|
|----------------------------------18-18-17-17-15-17-15---------------------|
|------------------------------------------------------17-------------------|Gtr
|------------------------------------------------------------15--14--12--14~| I
|---------------------------------------------------------------------------|
|---------------------------------------------------------------------------|

Riff G(played during the first part of Chuck's solo)
|-----------------------------------------------|
|-----------------------------------------------|
|-----------------------------------------------|Gtr
|---------9--10---------4-5-4-------------------|II
|-2-------7--8---2------2-3-2---2-------2-------|
|-0---0-0--------0--0-0---------0-0-0-0-0-0-0-0-|
    . .           . .         . . . . . . . .

Play Riff G 4 times

--BRAKE--

SOLO(Chuck Schuldiner) continued
|-5/-7--7/-8--8/-10--10~-----5/-7--7/-8--8/-7-------------|
|----------------------------------------------8/-10--10~-|
|---------------------------------------------------------|Gtr
|---------------------------------------------------------| I
|---------------------------------------------------------|
|---------------------------------------------------------|

|-5/-7--7/-8--8/-10--10--10~----------18---19---22---22fb~~-|
|-----------------------------------------------------------|
|-----------------------------------------------------------|Gtr
|-----------------------------------------------------------| I
|-----------------------------------------------------------|
|-----------------------------------------------------------|

Riff H (acoustic, played during the 2nd part of Chuck's solo)
|-------------|--------------0------|
|-------0-----|--------0-------0----|
|-----5---5---|------5---5-------5--|Gtr
|---2---------|----2----------------|II
|-0-----------|--0------------------|
|-------------|---------------------|

Play Riff H 4 times

Now go back and:
Play Riff C twice
Play Riff D once
Play Riff E once
Play Riff F twice

END

5.) 1000 Eyes

|Riff A|
|-----------------------------|----------------------------|
|-----------------------------|----------------------------|
|-----------------------------|----------------------------|
|---------9-------------------|---------7------------------|
|---------7---10--------------|---------5---8--------------|
|-0-0-0-0---------8-8-8-8-5-5-|-0-0-0-0--------6-6-6-6-3-3-|
| . . . .         . . . . . .   . . . .        . . . . . . |
|-----------------------------|----------------------------|
|-----------------------------|----------------------------|
|-----------------------------|----------------------------|
|---------9-------------------|---------7------------------|
|---------7---10--------------|---------5---8--------------|
|-0-0-0-0---------8-8-8-8-5-5-|-5-5-5-5--------6-6-6-6-3-3-|
  . . . .         . . . . . .   . . . .        . . . . . .

|-----------------------------|-----------------------------|
|-----------------------------|-----------------------------|
|-----------------------------|-----------------------------|
|---------9-------------------|---------9-------------------|
|---------7---6---------------|---------7---10--------------|
|-0-0-0-0--------4-4-4-4-1-1--|-0-0-0-0---------8-8-8-8-5-5-|
| . . . .        . . . . . .    . . . .         . . . . . . |
|-----------------------------|-----------------------------|
|-----------------------------|-----------------------------|
|-----------------------------|-----------------------------|
|---------9-------------------|---------9-------------------|
|---------7---6---------------|---------7---8---------------|
|-0-0-0-0--------4-4-4-4-5-5--|-5-5-5-5--------6-6-6-6-3-3--|
  . . . .        . . . . . .    . . . .        . . . . . .


Play Riff A a total of one time.


 |Riff B|
||----------------------------------------------|
||----------------------------------------------|
||:---------------------------------------------|
||:---------9-----------10---10---9--------12---|
||--0-0-0-0-7---0-0-0-0-7----7----7---10---10---|
||------------------------------------8---------|
||  . . . .     . . . .                         |
||----------------------------------------------|
||----------------------------------------------|
||----------------------------------------------|
||--------9-----------10---10---9---------------|
||--0--0--7---0-0-0-0-7----7----7---10---12-----|
||----------------------------------8----10-----|
   .  .      . . . .
 |----------------------------------------------||
 |----------------------------------------------||
 |----------------------------------------------||
 |----------9-----------10---10---9--------12---||
 |--0-0-0-0-7---0-0-0-0-7----7----7---10---10---||
 |------------------------------------8---------||
 |  . . . .     . . . .                         ||
 |----------------------------------------------||
 |----------------------------------------------||
 |---------------------------------------------:||
 |--------9-----------10---10---9--------------:||
 |--0--0--7---0-0-0-0-7----7----7---10----------||
 |----------------------------------8-----------||
    .  .      . . . .


Play Riff B a total of one time.


 |Riff B.1|
||----------------------------------------------|
||----------------------------------------------|
||:---------------------------------------------|
||:---------9-----------10---10---9--------12---|
||--0-0-0-0-7---0-0-0-0-7----7----7---10---10---|
||------------------------------------8---------|
||  . . . .     . . . .                         |
||----------------------------------------------|
||----------------------------------------------|
||----------------------------------------------|
||--------9-----------10---10---9---------------|
||--0--0--7---0-0-0-0-7----7----7---10---12-----|
||----------------------------------8----10-----|
   .  .      . . . .
 |----------------------------------------------||
 |----------------------------------------------||
 |----------------------------------------------||
 |----------9-----------10---10---9--------12---||
 |--0-0-0-0-7---0-0-0-0-7----7----7---10---10---||
 |------------------------------------8---------||
 |  . . . .     . . . .                         ||
 |----------------------------------------------||
 |----------------------------------------------||
 |---------------------------------------------:||
 |--------9-----------10---10---9--------a.h.--:||
 |--0--0--7---0-0-0-0-7----7----7---10---10~----||
 |----------------------------------8-----------||
    .  .      . . . .


Play Riff B.1 a total of one time.


 |Riff C|
||----------------------------------|---------------------------------||
||----------------------------------|---------------------------------||
||:---------------------------------|---------------------------------||
||:---------------------------------|---------------------------------||
||--5---2---------------------------|-3---2------------3--2-----5-----||
||--3---0---0-0-0-0-0-0-0-0-0-0-0-0-|-1---0---0-0-0-0--------3--------||
||      .   . . . . . . . . . . . .       .   . . . .                 ||
||----------------------------------|---------------------------------||
||----------------------------------|---------------------------------||
||----------------------------------|--------------------------------:||
||----------------------------------|--------------------------------:||
||----------------------------------|---------------------------------||
||--4-4-4-4-4-4-4-4-4-4-4-4-4-4-4-4-|-1-1-1-1-1-1-1-1-1-1-1-1-1-1-1-1-||
    . . . . . . . . . . . . . . . .   . . . . . . . . . . . . . . . .


Play Riff C a total of 4 times.


|Riff D|
|-------------------------------------------------------|
|-------------------------------------------------------|
|:-9----------------------------------------------------|
|:-9----------------------------------------------------|
|--7----------------------------------------------------|
|--0----------------------------------------------------|
|                                                       |
|  t p p h p h  t p p h p h  t p p h p h  t p p h p h   |
|-------------------------------------------------------|
|--12_8_5_8_5_8-12_8_5_8_5_8-12_8_5_8_5_8-12_8_5_8_5_8--|
|:------------------------------------------------------|
|:------------------------------------------------------|
|-------------------------------------------------------|
|-------------------------------------------------------|

|-------------------------------------------------------|
|-------------------------------------------------------|
|--6----------------------------------------------------|
|--6----------------------------------------------------|
|--4----------------------------------------------------|
|-------------------------------------------------------|
|                                                       |
|  t p p h p h  t p p h p h  t p p h p h  t p p h p h   |
|-------------------------------------------------------|
|-------------------------------------------------------|
|--13_9_6_9_6_9-13_9_6_9_6_9-13_9_6_9_6_9-13_9_6_9_6_9--|
|-------------------------------------------------------|
|-------------------------------------------------------|
|-------------------------------------------------------|

|-------------------------------------------------------|
|-------------------------------------------------------|
|-------------------------------------------------------|
|--6----------------------------------------------------|
|--6----------------------------------------------------|
|--4----------------------------------------------------|
|                                                       |
|  t p p h p h  t p p h p h  t p p h p h  t p p h p h   |
|--11_7_4_7_4_7-11_7_4_7_4_7-11_7_4_7_4_7-11_7_4_7_4_7--|
|-------------------------------------------------------|
|-------------------------------------------------------|
|-------------------------------------------------------|
|-------------------------------------------------------|
|-------------------------------------------------------|

|-------------------------------------------------------|
|-------------------------------------------------------|
|--8---------------------------------------------------:|
|--8---------------------------------------------------:|
|--6----------------------------------------------------|
|--6----------------------------------------------------|
|                                                       |
|  t p p h p h  t p p h p h  t p p h p h  t p p h p h   |
|-------------------------------------------------------|
|--11_7_4_7_4_7-11_7_4_7_4_7-11_7_4_7_4_7-11_7_4_7_4_7--|
|------------------------------------------------------:|
|------------------------------------------------------:|
|-------------------------------------------------------|
|-------------------------------------------------------|


Play Riff D a total of one time.


 |Riff E|
||----------------------------------------------------------||
||----------------------------------------------------------||
||:---------------------------------------------------------||
||:----------------------------10---9--------12-------------||
||--------------------------------------10--------9---10~---||
||--0--0--0--0--0--0--0--0--0-------------------------------||
||  .  .  .  .  .  .  .  .  .                               ||
||----------------------------------------------------------||
||----------------------------------------------------------||
||---------------------------------------------------------:||
||---------------------------------------------------------:||
||-----------------------------10---9--------12-------------||
||--0--0--0--0--0--0--0--0--0-----------10--------10~-------||
    .  .  .  .  .  .  .  .  .


Play Riff E a total of 4 times.


|Riff F|
|-----------------------------------|-----------------------------------|
|-----------------------------------|-----------------------------------|
|:----------------------------------|-----------------------------------|
|:-2222222222222222-----------------|-33333333333333333333333333333333--|
|--00000000000000002222222222222222-|-11111111111111111111111111111111--|
|------------------0000000000000000-|-----------------------------------|
   ................................   ................................

|-----------------------------------|-----------------------------------|
|-----------------------------------|-----------------------------------|
|-----------------------------------|-----------------------------------|
|--22222222222222222222222222222222-|-----------------------------------|
|--00000000000000000000000000000000-|-22222222222222222222222222222222--|
|-----------------------------------|-00000000000000000000000000000000--|
   ................................   ................................

|-----------------------------------|-----------------------------------|
|--10------13------12------13-------|---------12------13----------------|
|-----------------------------------|-9-----------------------12--------|
|-----------------------------------|-----------------------------------|
|-----------------------------------|-----------------------------------|
|-----------------------------------|-----------------------------------|

|-----------------------------------|-----------------------------------|
|-----------------------------------|-----------------------------------|
|-----------------------------------|-----------------------------------|
|-----------------------------------|-----------------------------------|
|--33333333333333333333333333333333-|-55555555555555555555555555555555--|
|--11111111111111111111111111111111-|-33333333333333333333333333333333--|
   ................................   ................................

|-----------------------------------|---------10------------------------|
|----------13------12------13-------|-----------------12------13--------|
|--10-------------------------------|-12--------------------------------|
|-----------------------------------|-----------------------------------|
|-----------------------------------|-----------------------------------|
|-----------------------------------|-----------------------------------|

|-----------------------------------|-----------------------------------|
|-----------------------------------|-----------------------------------|
|--2--------------------------------|-----------------------------------|
|--2--------------------------------|-2---------------------------------|
|--0--------------------------------|-2---------------------------------|
|-----------------------------------|-0---------------------------------|

|-----------------------------------|-----------------------------------|
|-----------------------------------|-----------------------------------|
|-----------------------------------|-----------------------------------|
|----------9-------10------9--------|---------9-------10----------------|
|--7--------------------------------|-10----------------------8---------|
|-----------------------------------|-----------------------------------|

|-----------------------------------|-----------------------------------|
|----------12------13------12-------|---------12------13----------------|
|--9--------------------------------|-12----------------------10--------|
|-----------------------------------|-----------------------------------|
|-----------------------------------|-----------------------------------|
|-----------------------------------|-----------------------------------|

|-----------------------------------|-----------------------------------|
|-----------------------------------|-----------------------------------|
|-----------------------------------|-----------------------------------|
|--3--------------------------------|-5---------------------------------|
|--3--------------------------------|-5---------------------------------|
|--1--------------------------------|-3---------------------------------|

|-----------------------------------|-----------------------------------|
|-----------------------------------|-----------------------------------|
|-----------------------------------|---------7-------------------------|
|----------9-------10------9--------|-----------------9-------10--------|
|--7--------------------------------|-10--------------------------------|
|-----------------------------------|-----------------------------------|

|-----------------------------------|---------10------------------------|
|----------12------13------12-------|-----------------12------13--------|
|--9--------------------------------|-12--------------------------------|
|-----------------------------------|-----------------------------------|
|-----------------------------------|-----------------------------------|
|-----------------------------------|-----------------------------------|


Play Riff F a total of one time.


 |Riff G|
||---------------------------------|-----------------------------------------||
||---------------------------------|-----------------------------------------||
||:-------------------------10-----|-----------------------------10----------||
||:-----------------8-7-----10-----|---------------------8-7-----10----------||
||--2-2-2-2-2-2-2-2-----8-7-8------|-2-2-2-2-2-2-2-2-2-2-----8-7-8--7_8_7----||
||--0-0-0-0-0-0-0-0----------------|-0-0-0-0-0-0-0-0-0-0-------------h-p--8~-||
||  . . . . . . . . . . . .          . . . . . . . . . . . . . .         a.h.||
||                                                                           ||
||---------------------------------|-----------------------------------------||
||---------------------------------|-----------------------------------------||
||----------------------10---------|-----------------------------10---------:||
||--------------8-7-----10---------|---------------------8-7-----10-7-------:||
||--2-2-2-2-2-2-----8-7-8----------|-2-2-2-2-2-2-2-2-2-2-----8-7-8--7---8~---||
||--0-0-0-0-0-0--------------------|-0-0-0-0-0-0-0-0-0-0------------5--a.h.--||
    . . . . . . . . . .              . . . . . . . . . . . . . .


Play Riff G a total of 2 times.


 |Riff H| |Let Ring|
||---------0-------------||0--------|---------------------------------||
||------------0----------||0--------|---------------------------------||
||:--------------5-------||5--------|-7-------------9/10-9------------||
||:-7---------------7----||7--------|-7-------------9/10-9------------||
||--7------------------8-||8--------|-5-------------7/8--7------------||
||--5-------------------------------|---------------sl----------------||
||                                                                    ||
||---------0-------------||0--------|---------------------------------||
||------------0----------||0--------|---------------------------------||
||---------------5-------||5--------|-7-------------9/10-7--7/12-12--:||
||--7---------------7----||7--------|-7-------------9/10-7--7/12-12--:||
||--7------------------8-||8--------|-5-------------7/8--5--5/10-10---||
||--5-------------------------------|---------------sl------sl--------||


Play Riff H a total of 2 times.


|Solo|
|-13-12-10------------------------------------------------------------------|
|----------13-12-10---------------------------------------------------------|
|-------------------12-10-12-10-9----9--------------------------------------|
|---------------------------------12---12-10----9---------------------------|
|--------------------------------------------12-----------------------------|
|---------------------------------------------------------------------------|

|-------12---13--13_17---13---12--------------------------------------------|
|-/15--------------h---------------15---13---10---12------------------------|
|sl-------------------------------------------------------------------------|
|---------------------------------------------------------------------------|
|---------------------------------------------------------------------------|
|---------------------------------------------------------------------------|

|---------------------8-7----------------8-7------13-12-10------------------|
|-------------------------10-8---------------10-8----------13-12-10-12------|
|---------7-10-9-7-------------10-9-7---------------------------------------|
|--7-9-10----------10-----------------10------------------------------------|
|---------------------------------------------------------------------------|
|---------------------------------------------------------------------------|

|-----------------10---12---13--------12------------------------------------|
|--10---12---13------------------12--------12---13--------------------------|
|---------------------------------------------------------------------------|
|---------------------------------------------------------------------------|
|---------------------------------------------------------------------------|
|---------------------------------------------------------------------------|

|--12-12-12-13-12-13-12-10-------10-10-12-10-12-10--------------------------|
|--------------------------13-12-------------------13-12-10-----------------|
|----------------------------------------------------------10-9-7_9_7-------|
|----------------------------------------------------------------h-p--10-9--|
|---------------------------------------------------------------------------|
|---------------------------------------------------------------------------|

|------12-13-10_12_10-------------------------------------------------------|
|----12--------h--p---13-12-10-12_10----------------------------------------|
|--12----------------------------p---12-10-12-10-9----10_9-------9----------|
|--------------------------------------------------12---p--12_10------------|
|------------------------------------------------------------p--------------|
|---------------------------------------------------------------------------|

|---------------------------------------------------------------------------|
|---------------------------------------------------------------------------|
|---------------------------------------------------------------------------|
|--7/10-10-10-9---9-9/12-12-12-10---10-10/14-14-14-15-14---14-14------------|
|--sl---------------sl------------------sl----------------------------------|
|---------------------------------------------------------------------------|


Repeat Riff B   a total of one time.
Repeat Riff B.1 a total of one time.
Repeat Riff B   a total of one time.
Repeat Riff B.1 a total of one time.
Repeat Riff C   a total of 4 times.
Repeat Riff D   a total of one time.
Repeat Riff E   a total of 4 times.
Repeat Riff F   a total of 1/2 time.


|rit      .      .      .             .|                 |Fade Out|
|-----------------------------------|-----------------------------|
|-----------------------------------|-----------------------------|
|--2------7------4------5-----------|-2"--------------------------|
|--2------7------4------5-----------|-2"--------------------------|
|--0------5------2------3-----------|-0"--------------------------|
|-----------------------------------|-----------------------------|
|                                                                 |
|-----------------------------------|-----------------------------|
|-----------------------------------|-----------------------------|
|-----------------------------------|-----------------------------|
|---------12-----9------10----------|-7---------------------------|
|--10-------------------------------|-----------------------------|
|-----------------------------------|-----------------------------|
|                                                                 |
|---------10------------------------|-----------------------------|
|----------------12-----13----------|-10--------------------------|
|--12-------------------------------|-----------------------------|
|-----------------------------------|-----------------------------|
|-----------------------------------|-----------------------------|
|-----------------------------------|-----------------------------|

6.) Without Judgement

Riff 1, play x4
Guitar 1:
|----------------------------------|
|----------------------------------|
|-----9-----10-----9-----10/12-----|
|---7-----8------7-----8-------10--|
|-0-----0------0-----0-------------|
|----------------------------------|
  * *   * *    * *   * *

|----------------------------------------|
|----------------------------------------|
|-----9-----10-----9-----10/12-------14--|
|---7-----8------7-----8-------10/12-----|
|-0-----0------0-----0-------------------|
|----------------------------------------|
  * *   * *    * *   * *

Guitar 2 (comes in the second time)
|------------------------------|
|------------------------------|
|-----5-----7-----5-----7/9----|
|---7-----8-----7-----8-----7--|
|-0-----0-----0-----0----------|
|------------------------------|
  * *   * *   * *   * *

|----------------------------------|
|----------------------------------|
|-----5-----7-----8-----7/9-----9--|
|---7-----8-----7-----8-----7/9----|
|-0-----0-----0-----0--------------|
|----------------------------------|
  * *   * *   * *   * *

|----------------------------|
|----------------------------|
|----------------------------|
|-2--------------------------| -->x2
|-0-----------3-------5------|
|-------------1-------3------|

Slide into riff 2

Riff 2, play x8
1st, 3rd, 5th&7th times
|---------------------------------|
|---------------------------------|
|---------------------------------|
|---------------------------------|
|---------8-7-5-7-----------------|
|-0-0-0-0---------0-0-0-0-000-0-0-|
  * * * *         * * * * *** * *

2nd&6th times
|---------------------------------|
|---------------------------------|
|---------------------------------|
|---------------------------------|
|---------3-2---------------------|
|-0-0-0-0-----3-5-0-0-0-0-111-1-1-|
  * * * *     * * * * * * *** * *

4th time
|---------------------------------|
|---------------------------------|
|---------------------------------|
|-----------------------------3---|
|---------3-2---------------2---2-|
|-0-0-0-0-----3-5-0-0-0-0-1-------|
  * * * *     * * * * * *

8th time
|-----------------|
|-----------------|
|-----------------|
|-----------------|
|---------3-2-----|
|-0-0-0-0-----3-5-|
  * * * *     * *

Guitar 2:
1st, 3rd, 5th&7th times
|-------------------------------|
|-------------------------------|
|-------------------------------|
|---------------------9-7-9-10~-|
|---------8-7-5-7---------------|
|-0-0-0-0---------0-0-----------|
  * * * *         * *

2nd&6th times
|--------------------------------|
|---------------------10-9---12~-|
|--------------------------9-----|
|--------------------------------|
|---------3-2--------------------|
|-0-0-0-0-----3-5-0-0------------|
  * * * *     * * * *

4th time
|---------------------------------|
|---------------------------------|
|---------------------------------|
|-----------------------------3---|
|---------3-2---------------2---2-|
|-0-0-0-0-----3-5-0-0-0-0-1-------|
  * * * *     * * * * * *

8th time
|-----------------|
|-----------------|
|-----------------|
|-----------------|
|---------3-2-----|
|-0-0-0-0-----3-5-|
  * * * *     * *

Riff 3, x4
|-------------------------------------------|
|-------------------------------------------|
|-------7---------6---------9---------------|
|-------5---------4---------7---------------|
|---------------------------------------5---|
|-0-0-0-----0-0-0-----0-0-0-----0-5-0-3---3-|
  * * *     * * *     * * *     * * * * * *

|-------------------------------------------|
|-------------------------------------------|
|-------7-----------------------------------|
|-------5---------7---------9---------------|
|-----------------5---------7-----------5---|
|-0-0-0-----0-0-0-----0-0-0-----0-5-0-3---3-|
  * * *     * * *     * * *     * * * * * *

Last time:
|------------------------------|
|------------------------------|
|-------7----------------------|
|-------5---------7---------9--|
|-----------------5---------7--|
|-0-0-0-----0-0-0-----0-0-0----|
  * * *     * * *     * * *

Riff 4, play x8
|-------------|
|-------------|
|-------3-----|
|-------1-----|
|-------------|
|-0-000---000-|
  * ***   ***

Riff 4b, play x4
|-------------|
|-------------|
|-------3-----|
|-------1-----|
|-------------|
|-1-111---111-|
  * ***   ***

Play riff 4 x4

Play riff 4b x4

Play riff 4 x4

Play riff 4b x4

Riff 5, play x1
|-----------------------------------|
|-----------------------------------|
|-----------------------------------|
|-------------------------------7---| -->x4
|-7---9---10---6---7---9---10-------|
|---0---0----0---0---0---0----0---0-|
  * * * * *  * * * * * * * *  * * *

|-------------------------------------|
|-------------------------------------|
|-------------------------------------|
|-5--------4--------2--------1--------|
|---333333---333333---000000---000000-|
|-------------------------------------|
    ******   ******   ******   ******

Riff 5b, play x3
|-----------------------------------|
|-----------------------------------|
|-----------------------------------|
|-------------------------------7---|
|-7---9---10---6---7---9---10-------|
|---0---0----0---0---0---0----0---0-|
  * * * * *  * * * * * * * *  * * *

|-------------------------------------|
|-------------------------------------|
|-------------------------------------|
|-5--------4--------2--------1--------|
|---333333---333333---000000---000000-|
|-------------------------------------|
    ******   ******   ******   ******

Riff 6 (Solo rhythm), play x4
|------------------------------------|
|------------------------------------|
|------------------------------------|
|-2------2----------5-------5--7-----|
|-2------2----------3-----3-3--5-----|
|------0--------0-0------------------|
       *        * *       *

|------------------------------------|
|------------------------------------|
|------------------------------------|
|-2------2----------5----------2-----|
|-2------2----------3-----3-5--0-----|
|------0--------0-0---------3--------|
       *        * *       *

Solo
|---------------------------------------|
|---------------------------------------|
|---------------------------------------|
|-------------------------7----7~-7h9---|
|-7~-------7-9-10~---9-10---10--------7-|
|-------------------------------------a-|
                     * *  * *

|--------------------|
|--------------------|
|--------------------|
|--------------------|
|-9b10r9--7h9h10-9~--|
|-a------------------|


|---------------------------------------------------------------|
|-------------12~-13~--12-13-12~--------------------------------|
|-12--11~-9~---a---a--------------------------------------------|
|--a------a----------------------9-9-9/10--10-10\7--7-7/9--9-9~-|
|---------------------------------------------------------------|
|---------------------------------------------------------------|


|-------------------------------|
|-------------------------------|
|------9---9/12-12--11-11/14-14-|
|-(9)---------------------------|
|------7---7/10-10---9--9/12-12-|
|-------------------------------|


|----------------------------------------|
|----17----------------------------------|
|-16----16~--------16-17-16----16--------|
|------------17-19----------19----19-17~-|
|----------------------------------------|
|----------------------------------------|


|-------------------------------------------------------|
|-------------------------------------------------------|
|-17-16-14----------17-16-14----------17-16-14----------|
|----------17-16-14----------17-16-14----------17-16-14-|
|-------------------------------------------------------|
|-------------------------------------------------------|
  *  *  *  *  *  *  *  *  *  *  *  *  *  *  *  *  *  *

|----------------------------------------------------|
|----------------------------------------------------|
|-17-16-14-------17-16-14----------17-16-14----------|
|----------17-16----------17-16-14----------17-16-14-|
|----------------------------------------------------|
|----------------------------------------------------|
  *  *  *  *  *  *  *  *  *  *  *  *  *  *  *  *  *

|------------------------------------------------|
|------------------------------------------------|
|-17-16-14---------------------------------------|
|----------17-16-14-17-16-14---------------------|
|----------------------------17-15-14-17-15-14~--|
|------------------------------------------------|
  *  *  *  *  *  *  *  *  *  *  *  *  *  *

|--------------------------|
|--------------------------|
|--------------------------|
|-14-14-14\9-9-9/12-12-12~-|
|--------------------------|
|--------------------------|
End solo

Riff 7, play x4
Guitar 1 (delay is used)
|--------8-------------8/10-|
|------8-------------8------|
|----8-------------8--------|
|---------------------------|
|-10------------10----------|
|---------------------------|


|----------10--------------10/11-|
|--------------------------------|
|-------12--------------12-------|
|----12--------------12----------|
|-10--------------10-------------|
|--------------------------------|


|----------11--------------13-|
|-----------------------------|
|-------12--------------12----|
|----12--------------12-------|
|-10--------------10----------|
|-----------------------------|


|----------13--------------10-|
|-----------------------------|
|-------12--------------12----|
|----12--------------12-------|
|-10--------------10----------|
|-----------------------------|


Guitar 2 (comes in the third time)
|-------------------------------------|
|-------------------------------------|
|----------10-12-13----------10-12-13-|
|-10-12-13----------10-12-13----------| -->x2
|-------------------------------------|
|-------------------------------------|
  *  *  *  *  *  *  *  *  *  *  *  *

|----------15----------------15----------------15------------|
|-13-12-------15----13-12-------15----13-12-------15---------|
|-------13-------12-------13-------12-------13-------12-12~--|
|------------------------------------------------------------|
|------------------------------------------------------------|
|------------------------------------------------------------|


|-------------------------------------|
|-------------------------------------|
|----------10-12-13----------10-12-13-|
|-10-12-13----------10-12-13----------| -->x2
|-------------------------------------|
|-------------------------------------|
  *  *  *  *  *  *  *  *  *  *  *  *


|----------15----------------15----------------15------------|
|-13-12-------15----13-12-------15----13-12-------15----15~--|
|-------13-------12-------13-------12-------13-------12------|
|------------------------------------------------------------|
|------------------------------------------------------------|
|------------------------------------------------------------|


Play riff 2 x8

Play riff 3 x4

Play riff 4 x8

Play riff 4b x4

Play riff 4 x4

Play riff 4b x4

Play riff 4 x4

Play riff 4b x4

Play riff 5 x1

Play riff 5b x3

7.) Crystal Mountain

[Riff A.1]
[---------------------------|-------------------------------]
[---------------------------|-------------------------------]
[*---------9-------------8--|----------9-------------------*]Gtr I
[*---------9-------------8--|----------9----4---3----------*]
[----------7-------------6--|----------7----2---1---3---5---]
[-0--0-0-0-^----0--0-0-0-^--|-0--0-0-0-^----^---^---1---3---]
  .  . . .      .  . . .      .  . . .              ^   ^

[---------------------------|-------------------------------]
[---------------------------|-------------------------------]
[*---------4-------------3--|----------4-------------------*]Gtr II
[*---------2-------------1--|----------2----4---3----------*]
[----------2-------------1--|----------2----2---1---3---5---]
[-0--0-0-0-^----0--0-0-0-^--|-0--0-0-0-^----^---^---1---3---]
  .  . . .      .  . . .      .  . . .              ^   ^

[---------------------------|-------------------------------------------------]
[---------------------------|-------------------------------------------------]
[*---------9-------------8--|17-16-14----------------------------------------*]Gtr I
[*---------9-------------8--|---------17-16-14-13----------------13-14-16-17-*]
[----------7-------------6--|---------------------15-14-12-14-15--------------]
[-0--0-0-0-^----0--0-0-0-^--|-------------------------------------------------]
  .  . . .      .  . . .

[---------------------------|-------------------------------------------------]
[---------------------------|-------------------------------------------------]
[*---------4-------------3--|10--9--7----------------------------------------*]Gtr II
[*---------2-------------1--|---------10--9--7--6-----------------6--7--9-10-*]
[----------2-------------1--|----------------------8--7--5--7--8--------------]
[-0--0-0-0-^----0--0-0-0-^--|-------------------------------------------------]
  .  . . .      .  . . .


[Riff A.2]
[---------------------------|-------------------------------]
[---------------------------|-------------------------------]
[*---------4-------------3--|----------4-------------------*]Gtrs I
[*---------2-------------1--|----------2----4---3----------*]  & II
[----------2-------------1--|----------2----2---1---3---5---]
[-0--0-0-0-^----0--0-0-0-^--|-0--0-0-0-^----^---^---1---3---]
  .  . . .      .  . . .      .  . . .              ^   ^

[---------------------------|-------------------------------]
[---------------------------|-------------------------------]
[*---------4-------------3--|----------4-------------------*]Gtr I
[*---------2-------------1--|----------2----4---3----------*]
[----------2-------------1--|----------2----2---1---3-------]
[-0--0-0-0-^----0--0-0-0-^--|-0--0-0-0-^----^---^---1---3~~-]
  .  . . .      .  . . .      .  . . .              ^   ^

[---------------------------|-------------------------------]
[---------------------------|-------------------------------]
[*---------4-------------3--|----------4-------------------*]Gtr II
[*---------2-------------1--|----------2----4---3----------*]
[----------2-------------1--|----------2----2---1---3---5---]
[-0--0-0-0------0--0-0-0----|-0--0-0-0-^----^---^---1---3---]
  .  . . .      .  . . .      .  . . .              ^   ^


[Riff B] - clean tone
[-----0------------|-------------------]
[--------0---------|-------------------]
[*----------5--(5)-|------------------*]
[*-----------------|-------2--------0-*]
[--0---------------|----0--------3-----]
[------------------|-3--------1--------]
  [ [ [ [ [ [ [ let ring ] ] ] ] ] ] ] ]


Repeat Riff B


[Riff C]
[------------------|-------------------]
[------------------|-------------------]
[*-----------------|-6--------------5-*]Gtr I
[*-7-9-10----------|-4----------6---3-*]
[--5-7-8--5~-------|-4----------4---3--]
[---------^--------|-^----------4---^--]
   . . .                        ^

[------------------|-------------------]
[------------------|-------------------]
[*-----------------|-6--------------5-*]Gtr I
[*-7-9-10----------|-4----------6---3-*]
[--5-7-8--5~-------|-4----------4---3--]
[---------^--------|-^----------4---^--]
   . . .                        ^

[------------------|-------------------]
[------------------|-------------------]
[*-----------------|-6--------------5-*]Gtr I
[*-7-9-10----------|-4----------6---3-*]
[--5-7-8--5~-------|-4----------4---3--]
[---------^--------|-^----------4---^--]
   . . .                        ^

[------------------|-------------------]
[------------------|-------------------]
[*-----------------|------------------*]Gtr II
[*-----------------|-4----------6---3-*]
[--5-7-8-----------|-4----------4---3--]
[--3-5-6--3~-------|-2----------4---1--]
   . . .  ^          ^          ^     ^


Play Riff B (A Total Of 2 Times)


Riff D  (I saw Death Play It This Way Live, so I rewrote it for
        you anal people)
[------------------------|--------------------------]
[------------------------|--------------------------]
[*-----------------------|--------------14----14-16*]Gtr I
[*----------12-14----12--|-----12-14-15----15------*]
[--12-14-15-------15-----|14-15---------------------]
[------------------------|--------------------------]

[------------------------|--------------------------]
[------------------------|--------------------------]
[*-----------------------|-------------------------*]Gtr II
[*-----------------------|-8-----------------------*]
[--------------8---------|-^-----------5~-----------]
[--5-----------^---------|-------------^------------]
   ^
[------------------------|--------------------------]
[------------------------|--------------------------]
[*-17-16-14----14--------|-------------------------*]Gtr I
[*----------15----15-14--|12-14-15-14-12------12---*]
[------------------------|--------------14-15----14-]
[------------------------|--------------------------]

[------------------------|--------------------------]
[------------------------|--------------------------]
[*-------------5---------|-------------------------*]Gtr II
[*-------------^---------|-------------5-----------*]
[--7---------------------|-------------^------------]
[--^---------------------|-8------------------------]
                           ^

[Riff E]
[----------------------|-----------------------]
[----------------------|-----------------------]
[*---------------------|----------------------*]Gtrs I
[*-10---------9--------|-10---------10-----9--*]  & II
[---^--7-0-0--^--7-0-0-|--^--7-0-0---^--7--*---]
[----------------------|-----------------------]
       . . .     . . .       . . .      .


*[Staccato]


Repeat Riff E
Repeat Riff D
Repeat Riff E (Play A Total of 2 Times)
Repeat Riff D
Repeat Riff E (Play A Total of 2 Times)


[Riff F]
[--------------16-16_17-16-------|-------16_17_16----19-17-16--------------]
[--------17-18------h------18-18-|---------h--p---18----------18-17--------]
[*-------------------------------|----------------------------------17-16-*]
[*-2-----------------------------|-3--------------------------------------*]
[--2-----------------------------|-3---------------------------------------]
[--0-----------------------------|-1---------------------------------------]
   ^                               ^
[Gtr I]  [Gtr III]               [Gtr I] [Gtr III]

[--------------------------------|-------16_17_16----19-17-16--------------]
[---------------9--9_10--9-------|---------h--p---18----------18-17--------]
[*--------9-10------h------10-10-|----------------------------------------*]
[*-2-----------------------------|-3--------------------------------------*]
[--2-----------------------------|-3--------------------------------15-14--]
[--0-----------------------------|-1---------------------------------------]
   ^                               ^
[Gtr II] [Gtr IV]                [Gtr II] [Gtr IV]


[Riff G]
[--------------------------------|------------------------------]
[--------------------------------|------------------------------]
[*--------999--------------------|-----------------------------*]Gtrs I
[*--------999--------------------|-----------------------------*]  & II
[-2-2-2-2-777-2-2-2-2-5---8---7--|-------------------------7~---]
[-0-0-0-0-000-0-0-0-0---6---5----|-0-0000000000000000008-5------]
  . . . .     . . . .              . ................... .

 (w/flanger)                      (w/flanger)
[--------------------------------|------------------------------]
[--------------------------------|------------------------------]
[*------------999----------------|-----------------------------*]Gtrs I
[*------------999----------------|-----------------------------*]  & II
[-2-----2-2-2-777-2-2-5---8---7--|-------------------------7--\-]
[-0-000-0-0-0-000-0-0---6---5----|-0-0000000000000000008-5----sl]
  . ... . . .     . .              . ................... .

                                  (w/flanger)
[--------------------------------|------------------------------]
[--------------------------------|------------------------------]
[*------------999----------------|-----------------------------*]Gtrs I
[*------------999----------------|-----------------------------*]  & II
[-2-2-2-2-2-2-777-2---5---8---7--|-------------------------7--\-]
[-0-0-0-0-0-0-000-0-0---6---5----|-0-0000000000000000008-5----sl]
  . . . . . .     . .              . ................... .

 (w/flanger)                      (w/flanger)
[--------------------------------|------------------------------]
[--------------------------------|------------------------------]
[*------------999----------------|-----------------------------*]Gtrs I
[*------------999----------------|-----------------------------*]  & II
[-2-----2-2-2-777-2-2-5---8---7\-|-------------------------7--\-]
[-0-000-0-0-0-000-0-0---6---5--sl|-0-0000000000000000008-5----sl]
  . ... . . .     . .              . ................... .


[Riff H]
[------------------------------------------]
[_12_0-19_0-20_0-19_0-17_0-15_0-14_0-15_0--]
[*-hp---tp---tp---tp---tp---tp---tp---tp--*]Gtr I
[*----------------------------------------*]
[------------------------------------------]
[------------------------------------------]

[------------------------------------------]
[-_5_0-12_0-13_0-12_0-10_0--8_0--7_0--8_0--]
[*-hp---tp---tp---tp---tp----tp---tp--tp--*]Gtr II
[*----------------------------------------*]
[------------------------------------------]
[------------------------------------------]

[------------------------------------------]
[------------------------------------------]
[*----------------------------------------*]Gtr III
[*-7--------------------------------------*]
[--7---------------------------------------]
[--5---------------------------------------]
   ^
[------------------------------------------]
[_12_0-19_0-20_0-19_0-17_0-15_0-14_0-15_0--]
[*-hp---tp---tp---tp---tp---tp---tp---tp--*]Gtr I
[*----------------------------------------*]
[------------------------------------------]
[------------------------------------------]

[------------------------------------------]
[-_5_0-12_0-13_0-12_0-10_0--8_0--7_0--8_0--]
[*-hp---tp---tp---tp---tp----tp---tp--tp--*]Gtr II
[*----------------------------------------*]
[------------------------------------------]
[------------------------------------------]

[------------------------------------------]
[------------------------------------------]
[*----------------------------------------*]Gtr III
[*-(7)------------------------------------*]
[--(7)-------------------------------------]
[--(5)-------------------------------------]

[------------------------------------------]
[_12_0-19_0-20_0-19_0-17_0-15_0-14_0-15_0--]
[*-hp---tp---tp---tp---tp---tp---tp---tp--*]Gtr I
[*----------------------------------------*]
[------------------------------------------]
[------------------------------------------]

[------------------------------------------]
[-_5_0-12_0-13_0-12_0-10_0--8_0--7_0--8_0--]
[*-hp---tp---tp---tp---tp----tp---tp--tp--*]Gtr II
[*----------------------------------------*]
[------------------------------------------]
[------------------------------------------]

[------------------------------------------]
[------------------------------------------]
[*----------------------------------------*]Gtr III
[*-6--------------------------------------*]
[--6---------------------------------------]
[--4---------------------------------------]
   ^
[------------------------------------------]
[_12_0-19_0-20_0-19_0-17_0-15_0-14_0-15_0--]
[*-hp---tp---tp---tp---tp---tp---tp---tp--*]Gtr I
[*----------------------------------------*]
[------------------------------------------]
[------------------------------------------]

[------------------------------------------]
[-_5_0-12_0-13_0-12_0-10_0--8_0--7_0--8_0--]
[*-hp---tp---tp---tp---tp----tp---tp--tp--*]Gtr II
[*----------------------------------------*]
[------------------------------------------]
[------------------------------------------]

[------------------------------------------]
[------------------------------------------]
[*----------------------------------------*]Gtr III
[*-6--------------------------------------*]
[--6---------------------------------------]
[--4---------------------------------------]
   ^

Repeat Riff H


Riff I - Gtrs I&II Plays this underneath the solo.
[-------------------|-----------------|-----------------|---------------]
[-------------------|-----------------|-----------------|---------------]
[*----------8-------|---------9-------|---------9-------|8-------------*]
[*-6--------8-------|7--------9-------|9--------9-------|8-------------*]
[--6--------6-------|7--------7-------|9--------7-------|6--------------]
[--4--------^-------|5--------^-------|7--------^-------|^--------------]
   ^                 ^                 ^

Gtr III (solo)
[-------------------------------------9_11__9----9-----------------------]
[-----------------------------9-11-12--h---p--12---12-11~~---------------]
[*---------6------------6-8-9-------------------------------------------*]
[*-6~--8-9----------8-9-------------------------------------------------*]
[------------------------------------------------------------------------]
[------------------------------------------------------------------------]

                                    ***all notes tremelo picked*********
[----------11-12-16-------18-19-18--161616-18-18-19-19-18-18-16-16-18-18-]
[-11-12-11----------17-14------------------------------------------------]
[*----------------------------------------------------------------------*]
[*----------------------------------------------------------------------*]
[------------------------------------------------------------------------]
[------------------------------------------------------------------------]

                                      *****unison bends*****
[-------------------------------------16--------18-------19--------------]
[--17-17-16-16-14-16-14---------------19b-------21b------22b-------------]
[*----------------------16-13-15~~~-------------------------------------*]
[*----------------------------------------------------------------------*]
[------------------------------------------------------------------------]
[------------------------------------------------------------------------]

  ******tremolo picking******
[-18-19-18-16-18-16--------------------------------]
[-------------------17-14-16~--16\14-14-14/19-19~--]
[*-------------------------------sl-------sl------*]
[*------------------------------------------------*]
[--------------------------------------------------]
[--------------------------------------------------]

[--------------------------------------------------]
[-16-17-16-14_16_14----14--------------------------]
[*-----------h--p---16----16-15~------------------*]
[*------------------------------------------------*]
[--------------------------------------------------]
[--------------------------------------------------]

**[Repeat Everything Starting From Riff A and ending at Riff F      ]
  [When you get to Riff F, DO NOT play Riff F!  Play Riff D Instead.]
  [Then play this acoustic guitar part over top of it.              ]


Acoustic Gtr. over chorus:
[-------------------------------10-12-13-12-10_12_10----10----------]
[-12-13-12~---------------12-13---------------h--p---13----13-12~---]
[*-----------------------------------------------------------------*]
[*-----------------------------------------------------------------*]
[-------------------------------------------------------------------]
[-------------------------------------------------------------------]


[-------------------------------------------------------------------]
[--------9----------------------9-10------------9-------------------]
[*7-9-10---10-7-7_9-------/9-10------------9-10---10-9-------------*]
[*---------------h--------sl---------------------------------------*]
[-------------------------------------------------------------------]
[-------------------------------------------------------------------]

   sweep
[------10-12-13-12-10-----------------------------------------------]
[----10--------------12-12_13~--13_15_13--12_13_12--10-12~----------]
[*-12---------------------h-------h--p------h--p-------------------*]
[*-----------------------------------------------------------------*]
[-------------------------------------------------------------------]
[-------------------------------------------------------------------]

    " = tremelo
[-------------------------------------------------------------------]
[-10"----10-13-12-----12_13_12-10-12----12---\6-5-6-5---5~--(5)~~~~-]
[*----------------------h--p---------13------sl-------7------------*]
[*-----------------------------------------------------------------*]
[-------------------------------------------------------------------]
[-------------------------------------------------------------------]

                                                   *****Fade Out*****
[-------------------------------------------------------------------]
[-------------------------------------10-9--------------------------]
[*----------------------7-----------9------10-9-7-9~---------------*]
[*-7~---7--7_9~------10---10-9~------------------------------------*]
[-----------h-------------------------------------------------------]
[-------------------------------------------------------------------]

8.) Misanthrope

Intro & verse:

|---------------------------------------------------------------------|
|---------------------------------------------------------------------|
|---------------------------------------------------------------------|
|---------------------------------------------------------------------|  X 6
|-9--------------7----------------9-------4--------5---------2--------|
|--77777777777777-777777-10-777777-333333---333333----000000---000000-|
   .............. ......    ...... ......   ......    ......   ......

Riff A (A view from.....)

|------------------------------------------------------------|
|------------------------------------------------------------|
|------------------------------------------------------------|
|-6-----------5-----------------------7----------6-----------|
|-------------------------6-----------5----5-6-5-------------|
|---4-4-4-4-4---4-4-4-4-4---4-4-4-4-4--------------0-0-0-0-0-|
lpm . . . . .   . . . . .   . . . . .              . . . . .

Continuation of riff A:

|------------------------------------|
|------------------------------------|
|-------------------------7----------|
|-6-----------6-----------5----------|  X 4
|------------------------------5-6-5-|
|---0-0-0-0-0---0-0-0-0-0------------|
lpm . . . . .   . . . . .


Riff B (Some were decided...)

|-------------------------------------------------|
|-------------------------------------------------|
|-------------------------------------------------|
|-5-----4-----7-------4---5-----4-----7-------4---|
|---3-3---3-3---3-3-3---3---0-0---0-0---0-0-0---0-|
|-------------------------------------------------|

Continuation of riff B:

|---------------------------------------|
|---------------------------------------|
|-------------------------------------9-|
|-5-----4-----7-------4---5-----4-----7-|  X 4
|---3-3---3-3---3-3-3---3---0-0---0-0-0-|
|---------------------------------------|


Chorus riff:

|-----------------------------|
|-----------------------------|
|-----------------------------|
|-----------------------------|  X 4
|-----3-4--------------3------|
|-0-2-----2-1------0-1--------|
  . . . . . .      . .

|--------------------|       |-------------------|
|--------------------|       |-------------------|
|--------------------|       |-------------------|
|--------------------|  X 3  |-------------------|
|-----3-4-----3------|       |-----3-4-----3-----|
|-0-2-----2-1----1---|       |-0-2-----2-1-------|
  . . . . . . .. .             . . . . . .

Interlude:

|-----------------------------------------------------------------------|
|-----------------------------------------------------------------------|
|--------7h9p7-------------9h10p9p7----------7h9p7------9-7-------------|
|---9-10-------10-9---9-10----------10-9---9-10-------10-9----10-9-7----|  X 4
|-7-----------------8--------------------7---------------------------10-|
|-----------------------------------------------------------------------|

Solo over interlude:

|------------------------------------------------/19-19~---------|
|-12-12-12\------------15-15-15\-----------13--12----------------|
|--------------------------------------------14------------------|
|----------------------------------------------------------------|
|----------------------------------------------------------------|
|----------------------------------------------------------------|

|----------------------------------------------------------------|
|----------------------------------------------------------------|
|----------------------------------------------------------------|
|----------------------------------------------------------------|
|-7~-------------------8~------------------5---7~----------------|
|----------------------------------------------------------------|

|----------------------------------------------------------------|
|----------------------------------------------------------------|
|----------------------------------------------------------------|
|----------------------------------------------------------------|
|-7~-------------------8~------------------10-8-7~---------------|
|----------------------------------------------------------------|

Solo:

|-----------------------------------------------------------------------|
|---13-12-10-12---------------------------------------------------------|
|------------------12-11-9-11--~----------------------------------------|
|----------------------------------10-9-7-9-----------------------2-----|
|-------------------------------------------10-9-7-9--5-3-2-------2-----|
|----------------------------------------------------------5-3-2--0-----|

|---------------------------------------------------------------20p17--------|
|-----------------16h17p16-----------------------------17-19-20------19-20---|
|--------16-17----------------17-16------------------------------------------|
|----14----------------------------------------------------------------------|
|----------------------------------------------------------------------------|
|----------------------------------------------------------------------------|

_______________________tremolo picking__________________________________________

|-------------------------------------------------------------------------------|
|--20-19-17-16-17-19-17-16------------------------------------------------------|
|--------------------------17-16-14-16-17-16-14---------------------------------|
|-----------------------------------------------17-14-16-~----------------------|
|-------------------------------------------------------------------------------|
|-------------------------------------------------------------------------------|

|---------------------------------------------------------------------------|
|----------------------------7-7---10-12-13-13---13-12-10-12p10-7-8-10-8-7--|
|------------------------8-9------------------------------------------------|
|-------------7-9-10-10-----------------------------------------------------|
|--7-9-10-10----------------------------------------------------------------|
|---------------------------------------------------------------------------|

|-----------------19-20-19-17--------|
|-----19-20-------------------20-19--|
|-----------17-16--------------------|
|------------------------------------|
|------------------------------------|
|------------------------------------|


______________________tremolo picking____________________________________________

|-----------------17-19-20-19-17--------------------------------------------------|
|--19-20-17-19-20----------------20-19-16-17-19-17-16-----------------------------|
|------------------------------------------------------17-16-14-16-17-16-14-16b-~-|
|---------------------------------------------------------------------------------|
|---------------------------------------------------------------------------------|
|---------------------------------------------------------------------------------|


Rhythm uner solo:

|---------------------------------------------------------|
|---------------------------------------------------------|
|----------5-----------4-----------------7---------9------|
|----------5-----------4-----------5-----7---------9------| (play twice & twice
|----------3-----------2-----------5-----5---------7------|   under solo)
|-000000000---000000000---0000000003--000-------000-------|
  .........   .........   .........   ...       ...

|-------------------------------------------------|
|-------------------------------------------------|
|-------------------------------------------------|
|----------------------------------4-----------4--|  X 2
|----------------------------------4-----------4--|
|-333333333333333333333333222222222---222222222---|
------------------------------------------------------------------------------

Solo

|-----------------------------------------------------------------------|
|---13-12-10-12---------------------------------------------------------|
|------------------12-11-9-11--~----------------------------------------|
|----------------------------------10-9-7-9-----------------------2-----|
|-------------------------------------------10-9-7-9--5-3-2-------2-----|
|----------------------------------------------------------5-3-2--0-----|

|---------------------------------------------------------------20p17--------|
|-----------------16h17p16-----------------------------17-19-20------19-20---|
|--------16-17----------------17-16------------------------------------------|
|----14----------------------------------------------------------------------|
|----------------------------------------------------------------------------|
|----------------------------------------------------------------------------|

_______________________tremolo picking__________________________________________

|-------------------------------------------------------------------------------|
|--20-19-17-16-17-19-17-16------------------------------------------------------|
|--------------------------17-16-14-16-17-16-14---------------------------------|
|-----------------------------------------------17-14-16-~----------------------|
|-------------------------------------------------------------------------------|
|-------------------------------------------------------------------------------|

|---------------------------------------------------------------------------|
|----------------------------7-7---10-12-13-13---13-12-10-12p10-7-8-10-8-7--|
|------------------------8-9------------------------------------------------|
|-------------7-9-10-10-----------------------------------------------------|
|--7-9-10-10----------------------------------------------------------------|
|---------------------------------------------------------------------------|

|-----------------19-20-19-17--------|
|-----19-20-------------------20-19--|
|-----------17-16--------------------|
|------------------------------------|
|------------------------------------|
|------------------------------------|


______________________tremolo picking_____________________________________________

|-----------------17-19-20-19-17--------------------------------------------------|
|--19-20-17-19-20----------------20-19-16-17-19-17-16-----------------------------|
|------------------------------------------------------17-16-14-16-17-16-14-16b-~-|
|---------------------------------------------------------------------------------|
|---------------------------------------------------------------------------------|
|---------------------------------------------------------------------------------|

9.) Perenial Quest

Riff A
|--------------------------------------------------|
|--------------------------------------------------|
|-4-----------4------------5-----------2-----------|Gtr
|---2-2-2-2-2---2------------3-3-3-3-3---2-5-5-5-5-|I&II
|-----0-0-0-0-----2-2-2-2------1-1-1-1-----3-3-3-3-|
|-----------------0-0-0-0--------------------------|
      . . . .     . . . .     . . . .     . . . .

Play Riff A twice

Riff B
|-12-----------------------12--------------10-10~~-|
|----12-10-9----9--------------12-10-9-10----------|
|------------10---9-10-9~--------------------------|Gtr
|--------------------------------------------------| I
|--------------------------------------------------|
|--------------------------------------------------|
|                                                  |
|--------------------------------------------------|
|--------------------------------------------------|
|-4-----------4------------5-----------2-----------|Gtr
|---2-2-2-2-2---2------------3-3-3-3-3---2-5-5-5-5-|II
|-----0-0-0-0-----2-2-2-2------1-1-1-1-----3-3-3-3-|
|-----------------0-0-0-0--------------------------|
      . . . .     . . . .      . . . .     . . . .

|-12-----------------------12--------------10-12~~-|
|----12-10-9----9--------------12-10-9-10----------|
|------------10---9-10-9~--------------------------|Gtr
|--------------------------------------------------| I
|--------------------------------------------------|
|--------------------------------------------------|
|                                                  |
|--------------------------------------------------|
|--------------------------------------------------|
|-4-----------4------------5-----------2-----------|Gtr
|---2-2-2-2-2---2------------3-3-3-3-3---2-5-5-5-5-|II
|-----0-0-0-0-----2-2-2-2------1-1-1-1-----3-3-3-3-|
|-----------------0-0-0-0--------------------------|
      . . . .     . . . .      . . . .     . . . .

Play Riff B once

Riff C
|------------------------------------------------------|
|------------------------------------------------------|
|----------------------4~--------------------5-4h5p4---|Gtr
|--------------7-5-4-2-------------------5-----------5-|I&II
|--------------------------------------3---3-----------|
|-000000000000------------000000000000-----------------|
  ............            ............

continuation of Riff C
|---------------------------------------------|
|---------------------------------------------|
|---------------------------------5~-------2~-|Gtr
|--------------7-5-4----------5--------2------|I&II
|--------------------7-6~---3---3----0---0----|
|-000000000000--------------------------------|
  ............

Play Riff C a total of 2 times

Riff D
|----------------------------------------------------|
|----------------6-----------------------------------|
|-3----2----2----------5----3----2-----3-------------|Gtr
|------------------3-------------------------3-------|I&II
|---1----0----0----------3----1-----0----1-----1-1-3-|
|----------------------------------------------------|

Play Riff D 3 times

Riff E                     Play this bar twice
|-------------------------|------------------------------|-----|
|-------------------------|------------------------------|-----|
|-------------------------|------------------------------|-----|Gtr
|-------------8-8---------|-10-10--------------8-8-------|--10-| I
|-2-2---6-6---6-6---8-8---|-8--8---2-2---6-6---6-6---8-8-|--8--|
|-0-0---4-4---------6-6---|--------0-0---4-4---------6-6-|-----|
| .     .     .     .       .      .     .     .     .         |
|                                                              |
|                          Play this bar twice                 |
|-------------------------|------------------------------|-----|
|-------------------------|------------------------------|-----|
|-------------------------|-5--5---4-4---3-3-------------|-----|Gtr
|-------------8-8---------|-3--3---2-2---1-1---------3-3-|--10-|II
|-2-2---6-6---6-6---8-8---|--------------------6-6---1-1-|--8--|
|-0-0---4-4---------6-6---|--------------------4-4-------|-----|
  .     .     .     .       .      .     .     .     .

Play Riff E once

Riff F
|-------------------------------|
|-------------------------------|
|-------------------------------|Gtr
|-------------------------------|I&II
|--------5/6----------2-1---2---|
|-000000-3/4-000000-3-----3---2-|
  ......     ...... . . . . . .

Continuation of Riff F
|-------------------------------|
|-------------------------------|
|-------------------------------|Gtr
|-------------------------------|I&II
|--------5/6----------2-1---3---|
|-000000-3/4-000000-3-----3---2-|
  ......     ...... . . . . . .

Play Riff F twice

Riff G
|---------------------------------------|
|---------------------------------------|
|----------4----------------4-----------|Gtr
|------------3---3------------3---3-2---|I&II
|--------------2----------------2-----3-|
|-00000000---------00000000-------------|
  ........         ........

Play Riff G 6 times

Riff H
|-----------------|------------------|------------------|----------------|
|-----------------|------------------|------------------|----------------|
|-----------------|------------------|------------------|----------------|Gtr
|-9/10-9--------9-|-9/10-9--------10-|-9/10-9--------5~-|--------------2-|I&II
|-7/8--7----------|-7/8--7-----------|-7/8--7-----------|-2/3-2--------2-|
|--------000000-7-|--------000000-8--|--------000000----|-0/1-0-000000-0-|
         ......            ......             ......            ......

Play Riff H twice

Riff I
|------------|------------------------|------------|---------------------|
|------------|------------------------|------------|---------------------|
|--------3-4-|------------------------|--------3-4-|---------------------|Gtr
|-000000-1-2-|-------------4----------|-000000-1-2-|---------------4-----|I&II
|------------|-4-6-7---2---2----------|------------|-4-6-7----2----2-----|
|------------|-2-4-5---0--------------|------------|-2-4-5----0----------|
               . .

Play Riff I once

Play Riff D twice

SOLO(Chuck Schuldiner)
|-------------------------------10p11h10----10hb~----------------------17~-|
|-----------------9----8hb~~-------------------------12--------------------|
|-7~~~~~----7----------------------------------------------15----16--------|Gtr
|--------------------------------------------------------------------------| I
|--------------------------------------------------------------------------|
|--------------------------------------------------------------------------|

|------------------------------------12--------14hb~~-|
|------------------10-------13------------12----------|
|--------------------------------9--------------------|Gtr
|------------8~---------9-----------------------------| I
|-7----9~---------------------------------------------|
|-----------------------------------------------------|

|-12p11-------------------------------------15-16h18---15-------------------|
|-------12----------------------------15h16---------------16----------------|
|----------11----------------------15------------------------15h16----------|Gtr
|-------------13----------------17---------------------------------17-------| I
|----------------14----------18---------------------------------------18----|
|-------------------15~---19---------------------------------------------19-|

|------------------------------------14--15--16--18----18fb~-|
|-------------------------12-15---16-------------------18fb~-|
|-15-------------------12------------------------------------|Gtr
|----16-------------13---------------------------------------| I
|-------17-------14------------------------------------------|
|----------15h16---------------------------------------------|

Tremolo picking
|-19p17p16-------19-16-17-16------------------------|
|----------16h19-------------16---------------11hb~-|
|-------------------------------16-13-15------------|Gtr
|----------------------------------------9-11-------| I
|---------------------------------------------------|
|---------------------------------------------------|

|----------------16--18--18~------16--18--19------16--18--19-|
|----16--17--19----------------17--------------17------------|
|-16---------------------------------------------------------|Gtr
|------------------------------------------------------------| I
|------------------------------------------------------------|
|------------------------------------------------------------|

|----18--19--21------19--21-----23--21--23--24~-|
|-17--------------19----------------------------|
|-----------------------------------------------|Gtr
|-----------------------------------------------| I
|-----------------------------------------------|
|-----------------------------------------------|

Very fast tremolo picking
|----------------------------------------19-20-22-20-19-17-------24~--24fb~~|
|----------12-13-15-13-12-10-12-13-16-19-------------------20-19------------|
|-------12------------------------------------------------------------------|Gtr
|-12-15---------------------------------------------------------------------| I
|---------------------------------------------------------------------------|
|---------------------------------------------------------------------------|

Riff J(played during Chuck's solo)
|-----------------------------|
|-----------------------------|
|-----------------------------|Gtr
|-----------------------------|II
|-6--6-6-8/9-9--6-6-8/9-9-8-8-|
|-4--4-4-6/7-7--4-4-6/7-7-6-6-|

Play Riff J twice

Riff K(Played during Chuck's solo)
|------------------------------|
|------------------------------|
|------------------------------|Gtr
|---------3/4-4------3/4-4-1-1-|II
|-2-2-2-2-1/2-2--2-2-1/2-2-1-1-|
|-0-0-0-0--------0-0-----------|
  . . . .        . .

Play Riff K twice
Play Riff J twice
Play Riff K twice

Riff L
|-------------------------------------------|
|----------------------------------8--------|
|------9--------10--7~-------9-----5--7--7~-|Gtr
|------7-----8------5~-------7-----5-----5~-|I&II
|-0-0-----0-------------0-0-----0-----------|
|-------------------------------------------|
  . .     .             . .     .

Play Riff L 8 times

Play Riff C twice
Play Riff D 4 times
Play Riff E once
Play Riff F once
Play Riff G 6 times(hold out last note)

Fill A
|--------------------------------------|
|--------------------------------------|
|--------------------------------------|Gtr
|--------------------------------------|I&II
|-6------------------5-----------------|
|-4------------------3-----------------|

Play Fill A once

Riff M(acoustic)
|-6--------5--------6--------5-------|-------6--------6--------5--------5-|
|----3--------3--------3--------3----|----4--------4--------4--------4----|
|-------0--------0--------0--------0-|-3--------3--------3--------3-------|Gtr
|------------------------------------|------------------------------------|II
|------------------------------------|------------------------------------|
|------------------------------------|------------------------------------|

PLay Riff M 12 times

SOLO(Chuck Schuldiner)
|---------------------------------------|
|---------------------------------------|
|---------------------------------------|Gtr
|-7h8p7~--------------7-----------------| I
|------------------------5-------5/---8-|
|---------------------------------------|

|-------------------------------------------------------------------|
|-------------------------------------------------------------------|
|-------------------------------------------------------7/-10~------|Gtr
|-7h8p7~------------------------------7h8p7~------------7/-10~--10~-| I
|---------------------5/---8~~--------------------------------------|
|-------------------------------------------------------------------|

|-------------------------------15~-15~~~~----------------------------|
|---------------------------------------------------------------------|
|-12------12------10-----------------------------------10~-----13~~~~-|Gtr
|-----13------13------15~--15~~----------------10~--------------------| I
|---------------------------------------------------------------------|
|---------------------------------------------------------------------|

|-20~~~~~~-----22~~~~~~-----23~~~~~~~~~------24~~~~~~~~~~-|
|---------------------------------------------------------|
|---------------------------------------------------------|Gtr
|---------------------------------------------------------| I
|---------------------------------------------------------|
|---------------------------------------------------------|

Let Riff M and the solo fade out.

END
Suggest correction
Creating personal tab
Creating personal tab
You can edit any tab online and save it as your Personal.

You can edit, replace or remove any tab part or add personal notes – all changes will be seen only by you.

Personal tabs can be accessed anytime from any device, even offline.
Learn more »
comments
print report bad tab
2 comments total.
0 reply
Anthraxl 10 Oct 07, 2009 02:43 PM

1000 thx for that! amazing work!

0 reply
Napalm Guzzler 10 Apr 23, 2011 12:42 PM

Love these tabs! Crystal Mountain tab is particularly excellent :D

guest
You may want to rate the tab now too:
select rating
Wanna post a correction for this tab? Suggest correction