Oops, an error
Loading. Please wait.
We have an official Symbolic tab made by UG professional guitarists. Check out the tab »
×
by Death
3,285 views 1 this week
no commentswrite comment
1 2 3 4 5
2 more votes to show rating
add to favorites
×
Save as Personal and add changes to this tab that will be seen only by you. Learn more ›
×
You can save this tab as Personal to edit and correct it or add notes. All changes will be seen only by you. Learn more »
launch autoscroll
font size
0
reset
how to read this tab
guitar tuner
backing track
0:00
0:00
edit
Autoscroll
slow
fast
+/-
esc
set tempo
stop
#----------------------------------PLEASE NOTE---------------------------------#
#This file is the author's own work and represents their interpretation of the #
#song. You may only use this file for private study, scholarship, or research. #
#------------------------------------------------------------------------------#

SYMBOLIC
As recorded by Death
(From the 1995 Album SYMBOLIC)

Transcribed by Jerad Yarborough wordman27@yahoo.com
        

Words and Music by Chuck Schuldiner

Gtr I (D G C F A D) - 'Schuldiner rhythm '
Gtr II (D G C F A D) - 'Koelble rhythm '
Gtr III (D G C F A D) - 'Schuldiner lead'
Gtr IV (D G C F A D) - 'Koelble lead'
Gtr V (D G C F A D) - 'Koeblle lead harmony'
Gtr VI (D G C F A D) - 'Schuldiner lead harmony'

 Intro
  Moderately Q=116
  E5             E5           E5             N.C.
 3/4
  Gtr I
    PM|    ~~~     PM--| ~      PM|    ~~~   PM--------|
  E E E E +Q     E E E E Q    E E E E +Q     E E E E E E
|--------------|------------|--------------|-------------|
|--------------|------------|--------------|-------------|
|--------------|------------|--------------|-------------|
|-9------------|-9----------|-9------------|-------------|
|-7-----8-(8)--|-7-------8--|-7-----8-(8)--|---5-----3---|
|---0-0--------|---0-0-0----|---0-0--------|-3---3-1---1-|


  E5              E5             E5               N.C.
     PM|    ~~~       PM--| ~        PM|    ~~~    PM------------------|
  E  E E E +Q      E  E E E Q     E  E E E +Q      E  E        E  E  E  E
|---------------|--------------|----------------|-------------------------|
|---------------|--------------|----------------|-------------------------|
|---------------|--------------|----------------|-------------------------|
|-9-------------|--9-----------|--9-------------|-------------------------|
|-7------8-(8)--|--7--------8--|--7------8-(8)--|-----5--------------3----|
|----0-0--------|-----0-0-0----|-----0-0--------|--3-----------3--1-----1-|
|
| Gtr III
|                  ~~~~~~~~~~~~~~~~~~
|                                                     |--3--|
| H.              +H.             H.               E  S  S  S  E  E  E  E
|---------------|--------------|----------------|-------------------------|
|---------------|--------------|----------------|-------------------------|
|-9-------------|-(9)----------|--9-------------|--9--7h=9p=7-------------|
|---------------|--------------|----------------|-------------10--9--7--6-|
|---------------|--------------|----------------|-------------------------|
|---------------|--------------|----------------|-------------------------|
|
| Gtr VI
|                                 ~~~
|                                                     |--3--|
| H.              +H.             H.               E  S  S  S  E  E  E  E
|---------------|--------------|----------------|-------------------------|
|---------------|--------------|----------------|-------------------------|
|---------------|--------------|-16-------------|-16-14h16p14-------------|
|-2-------------|-(2)----------|----------------|-------------17-16-14-13-|
|-2-------------|-(2)----------|----------------|-------------------------|
|-0-------------|-(0)----------|----------------|-------------------------|


  E5               E5              E5
  Gtrs I, II
      PM|    ~~~        PM--| ~       PM|    ~~~   PM---------|
   E  E E E +Q       E  E E E Q    E  E E E +Q     E  E E E E E
|----------------|---------------|---------------|---------------|
|----------------|---------------|---------------|---------------|
|----------------|---------------|---------------|---------------|
|--9-------------|---9-----------|-9-------------|---------------|
|--7------8-(8)--|---7--------8--|-7------8-(8)--|----5-----3----|
|-----0-0--------|------0-0-0----|----0-0--------|-3----3-1---1--|
|
| Gtr III
|  ~~~~~~~~~~~~~~~~~~~~~
|  H.               +H.            H.              H.
|----------------|---------------|---------------|---------------|
|----------------|---------------|---------------|---------------|
|----------------|---------------|---------------|---------------|
|----------------|---------------|---------------|---------------|
|--7-------------|--(7)----------|---------------|---------------|
|----------------|---------------|---------------|---------------|
|
| Gtr VI
|  ~~~~~~~~~~~~~~~~~~~~~
|  H.               +H.            H.              H.
|----------------|---------------|---------------|---------------|
|----------------|---------------|---------------|---------------|
|----------------|---------------|---------------|---------------|
|----------------|---------------|---------------|---------------|
|-14-------------|-(14)----------|---------------|---------------|
|----------------|---------------|---------------|---------------|


  E5             E5           E5             N.C.
  Gtrs I, II
    PM|    ~~~     PM--| ~      PM|    ~~~   PM--------|
  E E E E +Q     E E E E Q    E E E E +Q     E E E E E E
|--------------|------------|--------------|--------------|
|--------------|------------|--------------|--------------|
|--------------|------------|--------------|--------------|
|-9------------|-9----------|-9------------|--------------|
|-7-----8-(8)--|-7-------8--|-7-----8-(8)--|---5-----3----|
|---0-0--------|---0-0-0----|---0-0--------|-3---3-1---1--|


   Verse
    $
    E5             E5           E5             N.C.
      PM|    ~~~     PM--| ~      PM|    ~~~   PM--------|
    E E E E +Q     E E E E Q    E E E E +Q     E E E E E E  3x
||---------------|------------|--------------|--------------||
||o--------------|------------|--------------|-------------o||
||---------------|------------|--------------|--------------||
||--9------------|-9----------|-9------------|--------------||
||o-7-----8-(8)--|-7-------8--|-7-----8-(8)--|---5-----3---o||
||----0-0--------|---0-0-0----|---0-0--------|-3---3-1---1--||


   Pre-Chorus 1
    Faster Q=198
    N.C.
   4/4
    PM----------|      PM--------------------|
    S S S S S S E E  E S S S S   S S S S S S E E  E E  E
||-----------------------------|--------------------------|
||o----------------------------|--------------------------|
||-----------------------------|--------------------------|
||-----------------------------|---------------7----------|
||o---------------9-10---------|-----------------10-9-10--|
||--0-0-0-0-0-0-0------0-0-0-0-|-0-0-0-0-0-0-0------------|


  PM----------|      PM------------|          ~
  S S S S S S E E  E S S S S   S S E E  E E E Q   6x
|----------------------------|--------------------||
|----------------------------|-------------------o||
|----------------------------|--------------------||
|----------------------------|--------------------||
|---------------9-10---------|-------9-10-9-7----o||
|-0-0-0-0-0-0-0------0-0-0-0-|-0-0-0----------8---||


 Pre-Chorus 2
  G#5                                 A5
  Gtr I
                    ~~        PM----|                    ~
  H.      Q     Q   H.        S S S S H     Q     Q   Q  H
|------------|--------------|------------------|--------------|
|------------|--------------|------------------|--------------|
|------------|--------------|------------------|--------------|
|---------7--|--6-----------|---------------7--|--6-----------|
|-6----------|------7-------|---------7--------|------7--6----|
|-4----------|--------------|-5-5-5-5-5--------|--------------|
|
| Gtr II
|                             PM----|
| W            +W             S S S S H.         +W
|------------|--------------|------------------|--------------|
|------------|--------------|------------------|--------------|
|------------|--------------|------------------|--------------|
|------------|--------------|------------------|--------------|
|-6----------|-(6)----------|---------7--------|-(7)----------|
|-4----------|-(4)----------|-5-5-5-5-5--------|-(5)----------|


  G#5                                 A5
                    ~~        PM----|                 ~
  H.      Q     Q   H.        S S S S H    Q    Q  Q  H
|------------|--------------|-----------------|------------|
|------------|--------------|-----------------|------------|
|------------|--------------|-----------------|------------|
|---------7--|--6-----------|--------------7--|-6----------|
|-6----------|------7-------|---------7-------|----7--6----|
|-4----------|--------------|-5-5-5-5-5-------|------------|
|
|                             PM----|                 ~
| W            +W             S S S S H    Q    Q  Q  H
|------------|--------------|-----------------|------------|
|------------|--------------|-----------------|------------|
|------------|--------------|--------------9--|-8----------|
|------------|--------------|-----------------|----9--8----|
|-6----------|-(6)----------|---------7-------|------------|
|-4----------|-(4)----------|-5-5-5-5-5-------|------------|


    G#5                               A5
    Gtrs I, II
                    ~~        PM----|                 ~
    H.      Q    Q  H.        S S S S H    Q    Q  Q  H     3x
||-------------|------------|-----------------|-------------||
||o------------|------------|-----------------|------------o||
||-------------|------------|-----------------|-------------||
||----------7--|-6----------|--------------7--|-6-----------||
||o-6----------|----7-------|---------7-------|----7--6----o||
||--4----------|------------|-5-5-5-5-5-------|-------------||


  G#5                               A5
  Gtr I
                  ~~        PM----|                        ~~~
  H.      Q    Q  H.        S S S S H     Q      Q    Q    H
|------------|------------|-------------------|------------------|
|------------|------------|-------------------|------------------|
|------------|------------|--------------[9]--|-[8]--------------|
|---------7--|-6----------|-------------------|------[9]--[8]----|
|-6----------|----7-------|---------7---------|------------------|
|-4----------|------------|-5-5-5-5-5---------|------------------|
|
| Gtr II
|                 ~~        PM----|                        ~~~
| H.      Q    Q  H.        S S S S H     Q      Q    Q    H
|------------|------------|-------------------|------------------|
|------------|------------|-------------------|------------------|
|------------|------------|-------------------|------------------|
|---------7--|-6----------|---------------7---|--6---------------|
|-6----------|----7-------|---------7---------|-------7----6-----|
|-4----------|------------|-5-5-5-5-5---------|------------------|


    Q=202
      F5/C     E5/B     N.C.               F5/C     E5/B     N.C.
    Gtrs I, II
    PM       PM                     ~    PM       PM         PM------------|
    E E +Q   E E +Q     S S E Q  Q  Q    E E +Q   E E +Q     E E E E E E E E  4x
||--------------------|----------------|-------------------|------------------||
||o-------------------|----------------|-------------------|-----------------o||
||----5-(5)----4-(4)--|----------------|---5-(5)----4-(4)--|------------------||
||----3-(3)----2-(2)--|----------------|---3-(3)----2-(2)--|------------------||
||o---3-(3)----2-(2)--|-5h7p5----------|---3-(3)----2-(2)--|-3---2-----3-2---o||
||--0--------0--------|-------8--7--4--|-0--------0--------|---4---3-1-----3--||


 Chorus
                                                     To Coda
  E5                        N.C.
                            PM------------------------------|
  W          +W             E E E E E E E E   E E E E E E E E 14x
|----------|------------||------------------|------------------||
|----------|------------||o-----------------|-----------------o||
|----------|------------||------------------|------------------||
|-2--------|-(2)--------||------------------|------------------||
|-2--------|-(2)--------||o-3---2-----3-2---|-3---2-----3-2---o||
|-0--------|-(0)--------||----4---3-1-----3-|---4---3-1-----3--||


 Lead: Schuldiner
  F#5                               F5                  D5          E5
  Gtr III
   ~~~~~~~~~~~~~~~~                                      ~~~~~~~~~~
                        |--3---|
   W           +H      +Q   Q  Q     E  E  +E   E  E  E  Q     +W
|-----------|---------------------|-------------------------|-------------|
|-14--------|-(14)----(14)-14-14--|-14s15-(15)-15-15-15-15--|-(15)--------|
|-----------|---------------------|-------------------------|-------------|
|-----------|---------------------|-------------------------|-------------|
|-----------|---------------------|-------------------------|-------------|
|-----------|---------------------|-------------------------|-------------|
|
| Gtrs I, II
|  W           +W                    H.                  Q     +Q   H.
|-----------|---------------------|-------------------------|-------------|
|-----------|---------------------|-------------------------|-------------|
|-----------|---------------------|-------------------------|-------------|
|--4--------|--(4)----------------|--3-------------------7--|--(7)--9-----|
|--4--------|--(4)----------------|--3-------------------5--|--(5)--7-----|
|--2--------|--(2)----------------|--1----------------------|-------------|


  F#5
                                      |--3--|
   E E  q    E   E  E  E    E   E  E  Q  Q  Q  E
|----------(14)-------14-|-13--------21-17----22--|
|-14---15-------14-15----|-----15-14-------19-----|
|------------------------|------------------------|
|-----------16-----------|------------------------|
|------------------------|------------------------|
|------------------------|------------------------|
|
|  W                       +W
|------------------------|------------------------|
|------------------------|------------------------|
|------------------------|------------------------|
|--4---------------------|-(4)--------------------|
|--4---------------------|-(4)--------------------|
|--2---------------------|-(2)--------------------|


  F5                          D5          E5
                               ~~~~~~~~~~
   |----4:3-----|  |--4:3---|
   E   S  S  E  E  E  E  E  E  Q     +W
|-21--19h21p19----19----19--------|-------------|
|--------------22----22----22-21--|-(21)--------|
|---------------------------------|-------------|
|---------------------------------|-------------|
|---------------------------------|-------------|
|---------------------------------|-------------|
|
|  H.                          Q     +Q   H.
|---------------------------------|-------------|
|---------------------------------|-------------|
|---------------------------------|-------------|
|--3---------------------------7--|--(7)--9-----|
|--3---------------------------5--|--(5)--7-----|
|--1------------------------------|-------------|


  F#5
               |-----5-----|              |-----5-----|
   S  S  S  S  S  S  S  S  S  S  S  S  S  S  S  S  S  S
|-------------------------------------------------------|
|-19p14----19p14----19p14----19p14----19p14----19p14----|
|-------------------------------------------------------|
|-------16-------16-------16-------16-------16-------16-|
|-------------------------------------------------------|
|-------------------------------------------------------|
|
|  W
|-------------------------------------------------------|
|-------------------------------------------------------|
|-------------------------------------------------------|
|--4----------------------------------------------------|
|--4----------------------------------------------------|
|--2----------------------------------------------------|


                |-----5-----|              |-----5-----|
   S   S  S  S  S  S  S  S  S  S  S  S  S  S  S  S  S  S
|---------------------------------------------------------|
|-19p=14----19p14----19p14----19p14----19p14----19p14-----|
|---------------------------------------------------------|
|--------16-------16-------16-------16-------16-------16--|
|---------------------------------------------------------|
|---------------------------------------------------------|
|
| +W
|---------------------------------------------------------|
|---------------------------------------------------------|
|---------------------------------------------------------|
|-(4)-----------------------------------------------------|
|-(4)-----------------------------------------------------|
|-(2)-----------------------------------------------------|


  F5                                  D5
                                       |-----5-----|
   S  S  S  S  S  S  S  S  S  S  S  S  S  S  S  S  S
|-22p16----22p16----22p16----22p16----22p16----22p16-|
|----------------------------------------------------|
|-------19-------19-------19-------19-------19-------|
|----------------------------------------------------|
|----------------------------------------------------|
|----------------------------------------------------|
|
|  H.                                  Q
|----------------------------------------------------|
|----------------------------------------------------|
|----------------------------------------------------|
|--3-----------------------------------7-------------|
|--3-----------------------------------5-------------|
|--1-------------------------------------------------|


                  E5
   |-----5------|                           |---5----|
   S   S  S  S  S  S   S  S  S  S  S  S  S  E  S  S  S
|-22--21-19-21-19---------------------------------------|
|-----------------22--22-21-19-18-21-19-18--------------|
|------------------------------------------19-19-18-16--|
|-------------------------------------------------------|
|-------------------------------------------------------|
|-------------------------------------------------------|
|
| +Q               H.
|-------------------------------------------------------|
|-------------------------------------------------------|
|-------------------------------------------------------|
|-(7)--------------9------------------------------------|
|-(5)--------------7------------------------------------|
|-------------------------------------------------------|


  F#5
   ~~
                            |--3--|  |--3--|
   W           e   e  E  E  E  E  E  E  E  E
|-----------|--------------------------------|
|-----------|--------------------------------|
|-18--------|-18--19----------16----16-------|
|-----------|--------16-18-19----19----19-18-|
|-----------|--------------------------------|
|-----------|--------------------------------|
|
|  W          +W
|-----------|--------------------------------|
|-----------|--------------------------------|
|-----------|--------------------------------|
|--4--------|-(4)----------------------------|
|--4--------|-(4)----------------------------|
|--2--------|-(2)----------------------------|


  F5                              D5         E5
                               ~~~~~~~~~~~~~
   |-------6-------|  |--3--|
   S   S  S  S  S  S  E  E  E  H        +H.         +E.  S
|------------------------------------|----------------------|
|------------------------------------|----------------------|
|------------------------------------|----------------------|
|-16--18-16-15-16-15----15-----------|----------------------|
|--------------------17----17-16-----|-(16)--------(16)-14--|
|------------------------------------|----------------------|
|
|  H.                             Q     +Q   H.
|------------------------------------|----------------------|
|------------------------------------|----------------------|
|------------------------------------|----------------------|
|--3------------------------------7--|--(7)--9--------------|
|--3------------------------------5--|--(5)--7--------------|
|--1---------------------------------|----------------------|


  F#5
   |--3--|                    |--3--|        |--3--|
   E  E  E  S  S  S  S  S  S  S  S  S  S  S  S  S  S
|----------------------------------------------------|
|----------------------------------------------------|
|----------------------------------------------------|
|----------------------15-18-16-18-19-18-16-18-16-15-|
|-17-16-14-16-14-16-17-------------------------------|
|----------------------------------------------------|
|
|  W
|----------------------------------------------------|
|----------------------------------------------------|
|----------------------------------------------------|
|--4-------------------------------------------------|
|--4-------------------------------------------------|
|--2-------------------------------------------------|


                            |------6-------|
   S   S  S  S  S  S  S  S  S  S  S  S  S  S  +S   T  T  S  S
|--------------------------------------------------------------|
|--------------------------------------------------------------|
|-------------------------------------------------16-18-19-18--|
|-15-----------------15-18-15-16-18-19-16-18-(18)--------------|
|-----17-16-14-16-17-------------------------------------------|
|--------------------------------------------------------------|
|
| +W
|--------------------------------------------------------------|
|--------------------------------------------------------------|
|--------------------------------------------------------------|
|-(4)----------------------------------------------------------|
|-(4)----------------------------------------------------------|
|-(2)----------------------------------------------------------|


  F5                                               D5                  E5
                                                                   ~~~~
   |--3---|                          |-----5-----|  |---3----|
   S   S  S  T  T  T  T  S  S  S  S  S  S  S  S  S  E  S  S  E    +W
|--------------------------------------------------------------|-------------|
|--------------------------------------------------------------|-------------|
|-16--18-16----------------------------------------16-19-19-19-|-(19)--------|
|-----------19-18-16-15-18-15-16-18-19-15-16-18-19-------------|-------------|
|--------------------------------------------------------------|-------------|
|--------------------------------------------------------------|-------------|
|
|  H.                                               Q             +Q   H.
|--------------------------------------------------------------|-------------|
|--------------------------------------------------------------|-------------|
|--------------------------------------------------------------|-------------|
|--3------------------------------------------------7----------|--(7)--9-----|
|--3------------------------------------------------5----------|--(5)--7-----|
|--1-----------------------------------------------------------|-------------|


                                   |-----3------|  |--3--|
   e.  s  +E   e  +S   e.  E  E    E  E  E E  E E  E  E  E  Q
|-------------------------------|-------16---17---19-17-16-----|
|----------------------------18-|-19-----------------------18--|
|-19--18-(18)-16-(16)-18--19----|------------------------------|
|-------------------------------|------------------------------|
|-------------------------------|------------------------------|
|-------------------------------|------------------------------|
|
|  W                              +W
|-------------------------------|------------------------------|
|-------------------------------|------------------------------|
|-------------------------------|------------------------------|
|--4----------------------------|-(4)--------------------------|
|--4----------------------------|-(4)--------------------------|
|--2----------------------------|-(2)--------------------------|


  F5                        D5
                         ~~
          |-----5-----|      |--3--|
   E   E  S  S  S  S  S  Q   S  S  S  T  T  T  T
|------------------------------------------------|
|-18--19-18-19-18-15-----------------------------|
|--------------------19-18--19-18-16-------------|
|------------------------------------19-18-16-15-|
|------------------------------------------------|
|------------------------------------------------|
|
|  H.                        Q
|------------------------------------------------|
|------------------------------------------------|
|------------------------------------------------|
|--3-------------------------7-------------------|
|--3-------------------------5-------------------|
|--1---------------------------------------------|


                         Q=158
               E5          N.C.            F5
                                          2/4
                 ~~~~
   |--3---|
   S   S  S  E  +H.        W               H
|------------------------|---------------|------||
|------------------------|---------------|------||
|------------------------|---------------|------||
|-19--18-16-18-(18)------|---------------|------||
|------------------------|---------------|------||
|------------------------|---------------|------||
|
| +Q             H.        E E Q  E E Q    H
|------------------------|---------------|------||
|------------------------|---------------|------||
|------------------------|---------------|------||
|-(7)------------9-------|--------5------|------||
|-(5)------------7-------|---2-----------|-3----||
|------------------------|-0--------3----|-1----||


 Lead: Koelble
  N.C.
 4/4
  Gtr IV
   S  S  S     S     S  S  S  S  S  S  S  S  S  S  S    S
|---------------------------------------------------------|
|-19p13-------------------19p13---------------------------|
|-------15----------------------15------------------------|
|-------------14-------------------14----------14---------|
|-------------------15p14-------------15p14-17----15p==14-|
|---------------------------------------------------------|
|
| Gtr V
|        |---3----|
|  S  S  S  S     S  S  S  S  S  S  S  S  S  S  S  T T  S
|---------------------------------------------------------|
|-------------------------------------10h12h14-10---------|
|-----9-11h12p===11-----------9h11h13-------------11p9----|
|-11----------------11----11----------------------------9-|
|---------------------------------------------------------|
|---------------------------------------------------------|
|
| Gtrs I, II
|        PM------------------|         PM------------------
|  E     S     S     S  S  S  S  E     S  S  S  S  S    S
|---------------------------------------------------------|
|---------------------------------------------------------|
|---------------------------------------------------------|
|---------------------------------------------------------|
|--5-----------------------------4------------------------|
|--------2-----2-----2--2--2--2--------2--2--2--2--2----2-|


   S  S  S  S  S  S  S  S  S  S  S  S  S  S  S  S
|--------------------------------------------------|
|-20p13-------------19p13--------------------------|
|-------15----------------15----------15-----------|
|----------14----------------14----------14--------|
|-------------15p14-------------15p14-------15p14--|
|--------------------------------------------------|
|
|  S  S  S  S  S  S  S  S  S  S  S  S  S  S  e
|----------------------------------------17--------|
|-------------------------------10S12h15-----------|
|-----9-11h12p11----11p=9h11h13-------------12-----|
|-11-----------------------------------------------|
|--------------------------------------------------|
|--------------------------------------------------|
|
|----------------------------------------------|
|  E     S  S  S  S  S  S  S  S  S  S  S  S  S  S
|--------------------------------------------------|
|--------------------------------------------------|
|--------------------------------------------------|
|--------------------------------------------------|
|--------------------------------------------------|
|--3-----2--2--2--2--2--2--2--2--2--2--2--2--2--2--|


   S  S  S  S  S  S  S  S  S  S  S  S  S  S  S  S
|-------------------------------------------------|
|-15----------------------------14-15-17p14-------|
|----------14-------------14-17-------------15----|
|----16-17----17-16-14-17----------------------14-|
|-------------------------------------------------|
|-------------------------------------------------|
|
|  S  S  S  S  S  S  S  S  S  S  S  S  S  S  S  S
|-------------------------------------------------|
|-------------------------------------------------|
|-11-----------------------------9h11h12p=9-------|
|----------11-------------11-14-------------11----|
|----12-14----14-12-10-14----------------------11-|
|-------------------------------------------------|
|
|        PM------------|         PM------------|
|  E     S  S  S  S  S  S  E     S  S  S  S  S  S
|-------------------------------------------------|
|-------------------------------------------------|
|-------------------------------------------------|
|-------------------------------------------------|
|--5-----2--2--2--2--2--2--4----------------------|
|--------------------------------5--5--5--5--5--5-|


                    ~~~~~~~~~~~~
   S  S  S  S  E    E       +H
|-------------15---17b19---(17)---------------|
|-------15p14---------------------------------|
|----15---------------------------------------|
|-17------------------------------------------|
|---------------------------------------------|
|---------------------------------------------|
|
|                   ~~~~~~~~~~~~
|  S  S  S  S  E    E       +H
|---------------------------------------------|
|-------------11---13b15---(13)---------------|
|-------11p=9---------------------------------|
|--9-11---------------------------------------|
|---------------------------------------------|
|---------------------------------------------|
|
|        PM---------------------------------|
|  E     S  S  S S  S    S   S  S S S S S S S
|---------------------------------------------|
|---------------------------------------------|
|---------------------------------------------|
|--2------------------------------------------|
|---------------------------------------------|
|--------3--3--3-3--3----3---3--3-3-3-3-3-3-3-|


  Gtr IV
   E      S  S  S  S  T  T  T  T  T  T  T  T  S  S  S  S  S  S
|-19b21==19-19-19-19-19-19-19-19-19-19-19-19-19-19-19-19-19-19r-|
|---------------------------------------------------------------|
|---------------------------------------------------------------|
|---------------------------------------------------------------|
|---------------------------------------------------------------|
|---------------------------------------------------------------|
|
| Gtrs I, II
|         PM---------------|                  PM-----------------
|  E      S  S  S  S  S     S     E           S  S  S  S  S  S
|---------------------------------------------------------------|
|---------------------------------------------------------------|
|---------------------------------------------------------------|
|---------------------------------------------------------------|
|--5------------------------------4-----------------------------|
|---------2--2--2--2--2-----2-----------------2--2--2--2--2--2--|


                                                      ~~~~~~
   E      S  S  T  T  T  T  T  T  S   E        S  S   Q
|-19b21==19-19-19-19-19-19-19-19-19r-19b21====19-19r-19b21========|
|-----------------------------------------------------------------|
|-----------------------------------------------------------------|
|-----------------------------------------------------------------|
|-----------------------------------------------------------------|
|-----------------------------------------------------------------|
|
|---------------------------------------------------------------|
|  E      S  S  S     S     S     S   S     S  S  S   S     S S S
|-----------------------------------------------------------------|
|-----------------------------------------------------------------|
|-----------------------------------------------------------------|
|-----------------------------------------------------------------|
|-----------------------------------------------------------------|
|--3------2--2--2-----2-----2-----2---2-----2--2--2---2-----2-2-2-|


   +E    S  S  S  S  S  S  S  S  S  S  S  S  S  S
|-(19)r-22-19-17----------------------------------|
|----------------21-17h19-20p17-------------------|
|-------------------------------18----------------|
|----------------------------------19-16----------|
|----------------------------------------19-16-14-|
|-------------------------------------------------|
|
|        PM------------|         PM------------|
|   E    S  S  S  S  S  S  E     S  S  S  S  S  S
|-------------------------------------------------|
|-------------------------------------------------|
|-------------------------------------------------|
|-------------------------------------------------|
|---5----2--2--2--2--2--2--4----------------------|
|--------------------------------5--5--5--5--5--5-|


   S  S  S  S  S  S  S  T  T  S  S  S  S  S  T  T  S  S
|-------------------------------------------------------|
|----------------------14-15-17-16-15----15-12s13-------|
|-------------------14----------------16----------------|
|-------------16-17-------------------------------17p14-|
|-------14-17-------------------------------------------|
|-15-17-------------------------------------------------|
|
|        PM------------------------------------------|
|  E     S  S  S  S  S  S     S  S  S  S  S  S     S  S
|-------------------------------------------------------|
|-------------------------------------------------------|
|-------------------------------------------------------|
|--2----------------------------------------------------|
|-------------------------------------------------------|
|--------3--3--3--3--3--3-----3--3--3--3--3--3-----3--3-|


   E  E       +Q         +E.     S  S   S  S   S
|----19b21---(19)-------(19)----------------------|
|-------------------------------------------------|
|------------------------------[16]---[18]---[17]-|
|-16----------------------------------------------|
|-------------------------------------------------|
|-------------------------------------------------|
|
|     PM--------------|      PM--------------------
|  E  S    S   S  S S S   E  S   S  S   S  S   S
|-------------------------------------------------|
|-------------------------------------------------|
|-------------------------------------------------|
|-------------------------------------------------|
|--5----------------------4-----------------------|
|-----2----2---2--2-2-2------2---2--2---2--2---2--|


  S  S S  S  S  S  S  S  S  S  S  S  S  S  S  S
|-----------------------------------------------|
|--------------14-13----13----12-12-------------|
|---14------15-------14----14-------15-12-15-12-|
|--------16-------------------------------------|
|-----------------------------------------------|
|-----------------------------------------------|
|
|--------------------------------------------|
| E    S  S  S  S  S  S  S  S  S  S  S  S  S  S
|-----------------------------------------------|
|-----------------------------------------------|
|-----------------------------------------------|
|-----------------------------------------------|
|-----------------------------------------------|
|-3----2--2--2--2--2--2--2--2--2--2--2--2--2--2-|


   +S   S  S  S  S  S  S  S  S  S  S  S  S  S  S  S
|---------------------------------------------------|
|---------------------------------------------------|
|-(12)-14-12----------13----14----------14----15----|
|------------12----------13----14----------15----16-|
|---------------14----------------15----------------|
|------------------13----------------14-------------|
|
|          PM------------|         PM------------|
|   E      S  S  S  S  S  S  E     S  S  S  S  S  S
|---------------------------------------------------|
|---------------------------------------------------|
|---------------------------------------------------|
|---------------------------------------------------|
|---5------2--2--2--2--2--2--4----------------------|
|----------------------------------5--5--5--5--5--5-|


                                         |-3--|  |----3----|
   S  T  T  S  S  T  T  S  S S  S  S  S  T  T T  E    E    E
|-----------------------------------------------15---------------||
|------------------------------17-15-----------------15----------||
|-16----------17-------19p15p0-------17-15h16p0-----------16-----||
|----16s17-18----17s18-------------------------------------------||
|----------------------------------------------------------------||
|----------------------------------------------------------------||
|
|           PM-----------------------------------------------|
|  E        S  S  S     S  S S  S  S  S  S       S S    S    S
|----------------------------------------------------------------||
|----------------------------------------------------------------||
|----------------------------------------------------------------||
|--2-------------------------------------------------------------||
|----------------------------------------------------------------||
|-----------3--3--3-----3--3-3--3--3--3--3-------3-3----3----3---||


 Bridge
  N.C.
  Gtr IV
   ~~~~~~~~~~~~~~~~~~~~~~~~~~~~~~~~~~~~~~~
   W                                  +W
|-24b26============================|=(24)-----------------------------|
|----------------------------------|----------------------------------|
|----------------------------------|----------------------------------|
|----------------------------------|----------------------------------|
|----------------------------------|----------------------------------|
|----------------------------------|----------------------------------|
|
| Gtr V
|  ~~~~~~~~~~~~~~~~~~~~~~~~~~~~~~~~~~~~~~~
|  W                                  +W
|----------------------------------|----------------------------------|
|-17b19============================|=(17)-----------------------------|
|----------------------------------|----------------------------------|
|----------------------------------|----------------------------------|
|----------------------------------|----------------------------------|
|----------------------------------|----------------------------------|
|
| Gtrs I, II
|        PM--------|   PM-------------------------------------------|
|  E     S S S S S S E S S S S S S     E  S S S S S S S S S S S S S S
|----------------------------------|----------------------------------|
|----------------------------------|----------------------------------|
|----------------------------------|----------------------------------|
|----------------------------------|----------------------------------|
|--5-----------------4-------------|----------------------------------|
|--------2-2-2-2-2-2---2-2-2-2-2-2-|---3--2-2-2-2-2-2-2-2-2-2-2-2-2-2-|


   +Q.          +E       H
|-(24)---------(24)r-----------------------------|
|------------------------------------------------|
|------------------------------------------------|
|------------------------------------------------|
|------------------------------------------------|
|------------------------------------------------|
|
|  +H                   +E   +E     +E     +E
|------------------------------------------------|
|-(17)-----------------(17)r(17)---(17)---(17)---|
|------------------------------------------------|
|------------------------------------------------|
|------------------------------------------------|
|------------------------------------------------|
|
|      PM------------|        PM---------------|
|   E  S S S S   S   S   E    S  S   S  S   S  S
|------------------------------------------------|
|------------------------------------------------|
|------------------------------------------------|
|------------------------------------------------|
|---5--2-2-2-2---2---2---4-----------------------|
|-----------------------------5--5---5--5---5--5-|


  W
|-------------------------------|
|-------------------------------|
|-------------------------------|
|-------------------------------|
|-------------------------------|
|-------------------------------|
|
| W
|-------------------------------|
|-------------------------------|
|-------------------------------|
|-------------------------------|
|-------------------------------|
|-------------------------------|
|
|   PM------------------------|
| E S S S S S S S S S S S S S S
|-------------------------------|
|-------------------------------|
|-------------------------------|
|-2-----------------------------|
|-------------------------------|
|---3-3-3-3-3-3-3-3-3-3-3-3-3-3-|


  Gtr IV
                                                         ~~
  W                              S  S  S  S  S  S  S  S  H
|-----------------------------|------------------------------------------|
|-----------------------------|-15-14-12---------------------------------|
|-----------------------------|----------14-13-11-10---------------------|
|-----------------------------|----------------------12-11---------------|
|-----------------------------|------------------------------------------|
|-----------------------------|------------------------------------------|
|
| Gtrs I, II
|   PM--------|   PM---------------------------------------------------|
| E S S S S S S E S S S S S S    E     S  S  S  S  S  S  S S S S S S S S
|-----------------------------|------------------------------------------|
|-----------------------------|------------------------------------------|
|-----------------------------|------------------------------------------|
|-----------------------------|------------------------------------------|
|-5-------------4-------------|------------------------------------------|
|---2-2-2-2-2-2---2-2-2-2-2-2-|--3-----2--2--2--2--2--2--2-2-2-2-2-2-2-2-|


  Gtrs I, II
    PM--------|   PM--------|     PM------------------------|
  E S S S S S S E S S S S S S   E S S S S S S S S S S S S S S
|-----------------------------|-------------------------------|
|-----------------------------|-------------------------------|
|-----------------------------|-------------------------------|
|-----------------------------|-2-----------------------------|
|-5-2-2-2-2-2-2-4-------------|-------------------------------|
|-----------------5-5-5-5-5-5-|---3-3-3-3-3-3-3-3-3-3-3-3-3-3-|


    PM--------|   PM----------------------------------------|
  E S S S S S S E S S S S S S   E S S S S S S S S S S S S S S
|-----------------------------|-------------------------------|
|-----------------------------|-------------------------------|
|-----------------------------|-------------------------------|
|-----------------------------|-------------------------------|
|-5-------------4-------------|-------------------------------|
|---2-2-2-2-2-2---2-2-2-2-2-2-|-3-2-2-2-2-2-2-2-2-2-2-2-2-2-2-|


                                Original Tempo Q=116
    PM--------|   PM--------|     ~~~~~~~~~
  E S S S S S S E S S S S S S   E E +Q   H
|-----------------------------|---------------|
|-----------------------------|---------------|
|-----------------------------|---------------|
|-----------------------------|-2-------------|
|-5-2-2-2-2-2-2-4-------------|---------------|
|-----------------5-5-5-5-5-5-|---4-(4)--3----|


                                             D.S. al Coda
    E5             E5           E5             N.C.
   3/4
      PM|    ~~~     PM--| ~      PM|    ~~~   PM--------|
    E E E E +Q     E E E E Q    E E E E +Q     E E E E E E
||---------------|------------|--------------|---------------||
||o--------------|------------|--------------|--------------o||
||---------------|------------|--------------|---------------||
||--9------------|-9----------|-9------------|---------------||
||o-7-----8-(8)--|-7-------8--|-7-----8-(8)--|---5-----3----o||
||----0-0--------|---0-0-0----|---0-0--------|-3---3-1---1---||


 Outro Fade Out
  Q=202
  &
  N.C.
 4/4
  PM------------------------------------------------------------------|
  E E E E E E E E   E E E E E E E E   E E E E E E E E   E E E E E E E E
|-----------------|-----------------|-----------------|-----------------*|
|-----------------|-----------------|-----------------|-----------------*|
|-----------------|-----------------|-----------------|-----------------*|
|-----------------|-----------------|-----------------|-----------------*|
|-3---2-----3-2---|-3---2-----3-2---|-3---2-----3-2---|-3---2-----3-2---*|
|---4---3-1-----3-|---4---3-1-----3-|---4---3-1-----3-|---4---3-1-----3-*|



Duration Legend
---------------
W - whole; H - half; Q - quarter; E - 8th; S - 16th; T - 32nd; X - 64th; a - acciaccatura
+ - note tied to previous; . - note dotted; .. - note double dotted
Uncapitalized letters represent notes that are staccato (1/2 duration)
Irregular groupings are notated above the duration line
Duration letters will always appear directly above the note/fret number it represents the
duration for.  Duration letters with no fret number below them represent rests.  Multi-
bar rests are notated in the form Wxn, where n is the number of bars to rest for.  Low
melody durations appear below the staff

Tablature Legend
----------------
 h   - hammer-on
 p   - pull-off
 b   - bend
 pb  - pre-bend
 r   - bend release (if no number after the r, then release immediately)
 /\  - slide into or out of (from/to "nowhere")
 s   - legato slide
 S   - shift slide
 - natural harmonic
[n]  - artificial harmonic
n(n) - tapped harmonic
 ~   - vibrato
 tr  - trill
 T   - tap
 TP  - trem. picking
 PM  - palm muting
\n/  - tremolo bar dip; n = amount to dip
 \n  - tremolo bar down
 n/  - tremolo bar up
/n\  - tremolo bar inverted dip
 =   - hold bend; also acts as connecting device for hammers/pulls
 <> - volume swell (louder/softer)
 x   - on rhythm slash represents muted slash
 o   - on rhythm slash represents single note slash

Misc Legend
-----------
 |  - bar
||  - double bar
||o - repeat start
o|| - repeat end
*|  - double bar (ending)
 :  - bar (freetime)
 $  - Segno
 &  - Coda
Tempo markers -  = BPM(8/16=s8/s16), where s8 = swing 8ths, s16 = swing 16ths


            
            
Suggest correction
Creating personal tab
Creating personal tab
You can edit any tab online and save it as your Personal.

You can edit, replace or remove any tab part or add personal notes – all changes will be seen only by you.

Personal tabs can be accessed anytime from any device, even offline.
Learn more »
Give kudos to tab author, rate the tab!
1 2 3 4 5
comments
print report bad tab
guest
You may want to rate the tab now too:
select rating
Wanna post a correction for this tab? Suggest correction