Oops, an error
Loading. Please wait.

The Philosopher Tab

version 1
version 1
8,815 views 102 this week
4 commentsread comments
1 2 3 4 5
1 last vote to show rating
add to favorites
launch autoscroll
font size
0
reset
how to read this tab
guitar tuner
Autoscroll
slow
fast
+/-
esc
set tempo
stop
Help us to improve Ultimate-Guitar.com Take our survey!
×
From the 1993 album individual thought patterns

Tuning 
D
A
F
C
G
D

Gtr/1 Intro
|---------------------------|-------------------------------|
|-0h5h8t12p8p5-0h5h8t12p8p5-|-0h7h10t15p10p7-0h7h10t13p10p7-|
|---------------------------|-------------------------------|
|---------------------------|-------------------------------|
|---------------------------|-------------------------------|
|---------------------------|-------------------------------|


                                                         X2
|---------------------------|---------------------------|
|-0h5h8t12p8p5-0h5h8t12p8p5-|-0h4h7t12p7p4-0h4h7t10p7p4-|
|---------------------------|---------------------------|
|---------------------------|---------------------------|
|---------------------------|---------------------------|
|---------------------------|---------------------------|


Gtr/2
|---------------------------|---------------------------|
|---------------------------|---------------------------|
|-9-------------------------|-16------------------------|
|---------------------------|---------------------------|
|-7-------------------------|-14------------------------|
|---------------------------|---------------------------|


                                                        X2
|---------------------------|---------------------------|
|---------------------------|---------------------------|
|-12------------------------|-8-------------------------|
|---------------------------|---------------------------|
|-10------------------------|-6-------------------------|
|---------------------------|---------------------------|


both Gtrs  Verse         p.m---|    p.m--------|
|-----------------------|-----------------------------|
|-----------------------|-----------------------------|
|-----------------------|-----------------------------|
|-4---------------------|-----------------------------|
|-2----2----4----3------|-3-3-3-3----3-3-3-3-3-3-3----|
|------0----2----1------|-1-1-1-1----1-1-1-1-1-1-1----|


                         p.m.---|   p.m.-------       X4
|-----------------------|-----------------------------|
|-----------------------|-----------------------------|
|-----------------------|-----------------------------|
|-4---------------------|-----------------------------|
|-2----2----4----3------|-3-3-3-3----3-3-3-3-3-3-3----|
|------0----2----1------|-1-1-1-1----1-1-1-1-1-1-1----|


Riff C
|-----------------------|-----------------------|
|-----------------------|-----------------------|
|-----------------------|-----------------------|
|-----------------------|-----------------------|
|-2--------7~~~--6--9---|-2--------7~~~--6--9---|
|-0---------------------|-0---------------------|


               p.m.-------|
|--------------------------|----------------------|
|--------------------------|----------------------|
|--------------------------|----------------------|
|--------------------------|----------------------|
|-6--------7----6-6-6--6-6-|-6--------6-----------|
|-4-------------4-4-4--4-4-|-4-------------3*-----|


               p.m.-------|
|--------------------------|-----------------------|
|--------------------------|-----------------------|
|--------------------------|-----------------------|
|--------------------------|-----------------------|
|-6--------7*---6-6-6--6-6-|-6--------6------5-----|
|-4-------------4-4-4--4-4-|-4---------------3-----|


Chorus
|-------------------------|---------------------|
|-------------------------|---------------------|
|-------------------------|---------------------|
|-------------------------|-8-9-8---------------|
|-2-----------8~~~--------|-6-7-6-------------3-|
|-0-----------------------|-------------------1-|



|-------------------------|---------------------|
|-------------------------|---------------------|
|-------------------------|---------------------|
|-------------------------|-8-9-8------------5--|
|-2-----------8~~~--------|-6-7-6----------6-3--|
|-0-----------------------|----------------4----|

Riff D
 p.m.---|  p.m----|  p.m-| p.m----|  p.m.---|  p.m.-|
|-------------------------|-------------------------|
|-------------------------|-------------------------|
|-------------------------|-------------------------|
|---------7---------7-----|---------5---------5-----|
|-------------------------|-3-3-3-3---3-3-3-3---3-3-|
|-5-5-5-5---5-5-5-5---5-5-|-------------------------|


 p.m.--------------------| p.m.---|  p.m.---|  p.m.-|X4
|-------------------------|-------------------------|
|-------------------------|-------------------------|
|-------------------------|-------------------------|
|-------------------------|---------7---------7-----|
|---------5---------5-----|-5-5-5-5---5-5-5-5---5-5-|
|-3-3-3-3---3-3-3-3---3-3-|-------------------------|


Post-solo riff                                               X3 
|-----------------------------|-----------------------------|
|-----------------------------|-----------------------------|
|-----------------------------|-----------------------------|
|-4-------------3-------------|-4-------------3-------------|
|-2------3------1------2------|-2------3------1------2------|
|--------1-------------0------|--------1-------------0------|


Outro
|---------------------------------|----------------------------------|
|---------------------------------|----------------------------------|
|---------------------------------|----------------------------------|
|---------------------------------|----------------------------------|
|-7-------------8-----------------|-7-------------8------------------|
|-5-------------6-----------------|-5-------------6------------------|



|---------------------------------|----------------------------------|
|---------------------------------|----------------------------------|
|---------------------------------|----------------------------------|
|---------------------------------|----------------------------------|
|-2-------------3-----------------|-2-------------3------------------|
|-0-------------1-----------------|-0-------------1------------------|



Intro X2
Verse X4
Riff C 
Chorus
Riff C
Riff D X4
Post-solo Riff X3
Verse X4
Riff C
Chorus
Riff C
Outro (until fadeout)

Suggest correction
Give kudos to tab author, rate the tab!
1 2 3 4 5
comments
print report bad tab
4 comments total. Showing first comments.
0 reply
CoB_HaTeCrEw_67 70 May 18, 2009 02:13 PM

I made a mistake on the second part of the second bar on the chorus . its supposed to be like this

C|-8-9-8----------------|
G|-6-7-6----------------|
D|------------------1~~~|

0 reply
CoB_HaTeCrEw_67 70 May 18, 2009 02:14 PM

i also misplaced the palm mutes on the 2nd bar of the verse

0 reply
CoB_HaTeCrEw_67 70 May 20, 2009 03:42 PM

ignore those comments i just realized you can update your tab

guest
You may want to rate the tab now too:
select rating
Wanna post a correction for this tab? Suggest correction