Oops, an error
Loading. Please wait.

To Forgive Is To Suffer tab

version 2
version 2

Whole song

by Death
1,767 views 1 this week
no commentswrite comment
1 2 3 4 5
3 more votes to show rating
add to favorites
×
Save as Personal and add changes to this tab that will be seen only by you. Learn more ›
×
You can save this tab as Personal to edit and correct it or add notes. All changes will be seen only by you. Learn more »
launch autoscroll
font size
0
reset
how to read this tab
guitar tuner
edit
Autoscroll
slow
fast
+/-
esc
set tempo
stop
#----------------------------------PLEASE NOTE---------------------------------#
#This file is the author's own work and represents their interpretation of the #
#song. You may only use this file for private study, scholarship, or research. #
#------------------------------------------------------------------------------#

TO FORGIVE IS TO SUFFER
As recorded by Death
(From the 1998 Album THE SOUND OF PERSEVERANCE)

Transcribed by livingzombie
        

Words and Music by Chuck Schuldiner

Gtr I (D G C F A D) - 'Chuck Schuldiner'
Gtr II (D G C F A D) - 'Shannon Hamm'

 Intro
  Q=160      Q=147
             $
  N.C.           A5         N.C.              Ab5        N.C.
 4/4
  Gtrs I, II
                            PM|     ~~                   PM|     ~~
  Wx3            W          S S S S H.        W          S S S S H.
|------------||-----------|-----------------|----------|---------------|
|------------||o----------|-----------------|----------|---------5-----|
|------------||-----------|-----4-5-4-------|----------|-----4-5-------|
|------------||--7--------|-7-7-------------|-6--------|-7-7-----------|
|------------||o-7--------|-----------------|-6--------|---------------|
|------------||--5--------|-----------------|-4--------|---------------|


  C5         N.C.              B5
  Gtr I
             PM----| ~~
  W          S S S S H.        W
|----------|-----------------|----------|
|----------|-6-6-5---5-------|----------|
|-5--------|-------7---------|-4--------|
|-5--------|-----------------|-4--------|
|-3--------|-----------------|-2--------|
|----------|-----------------|----------|
|
| Gtr II
|            PM----| ~~
| W          S S S S H.        W
|----------|-----------------|----------|
|----------|-6-6-5---5-------|----------|
|-5--------|-------7---------|-4--------|
|-5--------|-----------------|-4--------|
|-3--------|-----------------|-2--------|
|----------|-----------------|----------|


 1.                      2.
  N.C.
  E. S S S E  E. E. E      E.  S  S S  E    E.  E.  E
|----------------------||-------------------------------|
|---------------------o||-------------------------------|
|-5--4h5p4---10--7-----||--5---4h=5p4------10---7-------|
|----------6--------9--||--------------6------------9---|
|---------------------o||-------------------------------|
|----------------------||-------------------------------|
|
| E. S S S E  E. E. E      E.  S  S S  E    E.  E.  E
|-5--4h5p4---10--7--4--||-[5]-[4]h5p4-----[10]-[7]-[4]--|
|----------5----------o||-------------[5]---------------|
|----------------------||-------------------------------|
|----------------------||-------------------------------|
|---------------------o||-------------------------------|
|----------------------||-------------------------------|


  A5           N.C.                     Ab5         N.C.
                PM|      ~~~                         PM|      ~~~
    W           S S S S  H.              W           S S S S  H.
|------------|------------------------|-----------|------------------------|
|------------|------------------------|-----------|-----------5------------|
|------------|------4-5--4------------|-----------|------4-5---------------|
|---7--------|--7-7-------------------|--6--------|--7-7-------------------|
|---7--------|------------------------|--6--------|------------------------|
|---5--------|------------------------|--4--------|------------------------|
|
|   ~~~                                  ~~
|   W           Q        Q     Q   Q     W           Q        Q     Q   Q
|------------|------------------------|-----------|------------------------|
|-/10--------|-10-------12---/13--12--|-12--------|-12-------13---/15--13--|
|------------|------------------------|-----------|------------------------|
|------------|------------------------|-----------|------------------------|
|------------|------------------------|-----------|------------------------|
|------------|------------------------|-----------|------------------------|


                                                     H.=H               Q=120
                                                                 To Coda
  C5          N.C.                       B5          N.C.
                PM----|  ~~~
   W            S S S S  H.               W          E. S S S E  E.  E.  E
|-----------|--------------------------|-----------|-8--7h8p7---13--10-------||
|-----------|---6-6-5----5-------------|-----------|----------9---------12---||
|--5--------|---------7----------------|--4--------|-------------------------||
|--5--------|--------------------------|--4--------|-------------------------||
|--3--------|--------------------------|--2--------|-------------------------||
|-----------|--------------------------|-----------|-------------------------||
|
|  ~~                                     ~~
|  W            Q        Q    Q   E  E    W          E. S S S E  E.  E.  E
|-----------|--------------------------|-----------|-5--4h5p4---10---7---4---||
|-17--------|-/17-------15---13--12s13-|-12--------|----------5--------------||
|-----------|--------------------------|-----------|-------------------------||
|-----------|--------------------------|-----------|-------------------------||
|-----------|--------------------------|-----------|-------------------------||
|-----------|--------------------------|-----------|-------------------------||


   Verse
    Q=89
    $$
    N.C.
               ~~~                      ~~~
    E    E     Q.           E     E     E
||----------------------------------------|
||o---------------------------------------|
||-------4-----4------------------------4-|
||--2-----------------------2-----2-------|
||o---------------------------------------|
||----------------------------------------|
|
|   PM         ~~~                   ~~~~~~
|   S S  S  S  E.  S  S  S  S  S  S  E.
||----------------10-12h13-12-10----------|
||o-----12h13-12-----------------13-12----|
||----9-----------------------------------|
||--7-------------------------------------|
||o---------------------------------------|
||----------------------------------------|


 ~~~~~~                              ~~
   +E     E     E  E     E     E     E +E
|--------------------------------------------|
|--------------------------------------------|
|--(4)-------------5-----5----/7-----7-(7)\--|
|---------3-----3----------------------------|
|--------------------------------------------|
|--------------------------------------------|
|
|~~~~~~         ~~~                  ~~
|  +S  S  S  S  E.    S  S  S  S  S  Q
|--------------------10-12h13-12-10----------|
|-(12)---12h13-12-------------------13-------|
|------9-------------------------------------|
|--------------------------------------------|
|--------------------------------------------|
|--------------------------------------------|


      ~~                         ~
  E E Q.   E E E   E E E E E   E E +E    3x
|----------------|-----------------------||
|----------------|----------------------o||
|---4-4--------4-|-4-----5-5--/7-7-(7)\--||
|-2--------2-2---|---3-3-----------------||
|----------------|----------------------o||
|----------------|-----------------------||
|
|     ~~                         ~
| E E Q.   E E E   E E E E E   E E +E    3x
|----------------|-----------------------||
|----------------|----------------------o||
|----------------|-----------------------||
|---4-4----------|-----------------------||
|-2--------2-0-2-|-3-----3-8\--5-5-(5)\-o||
|----------------|---1-1-----------------||


 Bridge
  Q=182
  PM-------------|     PM-------------------|
  S  S S S S S S S E E E E   S S S S S  S S S S S E E E
|--------------------------|----------------------------|
|--------------------------|----------------------------|
|--------------------------|----------------------------|
|--------------------------|----------------------------|
|------------------3p0-----|----------------------------|
|-0--0-0-0-0-0-0-0-----0-0-|-0-0-0-0-0--0-0-0-3p2p0-3h5-|
|
|                      PM----|
| H.                   E E   E   E   H.
|--------------------------|----------------------------|
|--------------------------|----------------------------|
|--------------------------|----------------------------|
|--------------------------|----------------------------|
|--------------------------|----------------------------|
|----------------------0-0-|-0--------------------------|


                      C5   D5   B5
  PM------------|
  S S S S S S S S E E Q    H    H
|------------------------|-----------|
|------------------------|-----------|
|------------------------|-----------|
|---------------------5--|-7----4----|
|-----------------3p0-3--|-5----2----|
|-0-0-0-0-0-0-0-0--------|-----------|
|
| PM------------|
| S S S S S S S S E E Q    H    H
|------------------------|-----------|
|------------------------|-----------|
|------------------------|-----------|
|---------------------5--|-7----4----|
|-----------------3p0-3--|-5----2----|
|-0-0-0-0-0-0-0-0--------|-----------|


  N.C.
  Gtrs I, II
  PM------------|     PM------------------|
  S S S S S S S S E E E E   S S S S S S S S S S E E E
|-------------------------|---------------------------|
|-------------------------|---------------------------|
|-------------------------|---------------------------|
|-------------------------|---------------------------|
|-----------------3p0-----|---------------------------|
|-0-0-0-0-0-0-0-0-----0-0-|-0-0-0-0-0-0-0-0-3p2p0-3h5-|


                      C5   B5   G5
  PM------------|
  S S S S S S S S E E Q    H    H
|------------------------|-----------|
|------------------------|-----------|
|------------------------|-----------|
|---------------------5--|-4---------|
|-----------------3p0-3--|-2----5----|
|-0-0-0-0-0-0-0-0--------|------3----|


 Verse
  N.C.
  PM------------|     PM------------------|
  S S S S S S S S E E E E   S S S S S S S S S S E E E
|-------------------------|---------------------------|
|-------------------------|---------------------------|
|-------------------------|---------------------------|
|-------------------------|---------------------------|
|-----------------3p0-----|---------------------------|
|-0-0-0-0-0-0-0-0-----0-0-|-0-0-0-0-0-0-0-0-3p2p0-3h5-|


                      C5   D5   B5
  PM------------|
  S S S S S S S S E E Q    H    H
|------------------------|-----------|
|------------------------|-----------|
|------------------------|-----------|
|---------------------5--|-7----4----|
|-----------------3p0-3--|-5----2----|
|-0-0-0-0-0-0-0-0--------|-----------|


  N.C.
  Gtr I
  PM------------|     PM------------------|
  S S S S S S S S E E E E   S S S S S S S S S S E E E
|-------------------------|---------------------------|
|-------------------------|---------------------------|
|-------------------------|---------------------------|
|-------------------------|---------------------------|
|-----------------3p0-----|---------------------------|
|-0-0-0-0-0-0-0-0-----0-0-|-0-0-0-0-0-0-0-0-3p2p0-3h5-|
|
| Gtr II
| PM------------|     PM------------------|
| S S S S S S S S E E E E   S S S S S S S S S S E E E
|-------------------------|---------------------------|
|-------------------------|---------------------------|
|-------------------------|---------------------------|
|-------------------------|---------------------------|
|-----------------3p0-----|---------------------------|
|-0-0-0-0-0-0-0-0-----0-0-|-0-0-0-0-0-0-0-0-3p2p0-3h5-|


                      C5   B5   G5
  PM------------|                ~~~
  S S S S S S S S E E Q    H     H
|------------------------|-------------||
|------------------------|-------------||
|------------------------|-------------||
|---------------------5--|-4----[5]----||
|-----------------3p0-3--|-2-----------||
|-0-0-0-0-0-0-0-0--------|-------------||
|
| PM------------|
| S S S S S S S S E E Q    H     H
|------------------------|-------------||
|------------------------|-------------||
|------------------------|-------------||
|---------------------5--|-4-----------||
|-----------------3p0-3--|-2-----5-----||
|-0-0-0-0-0-0-0-0--------|-------3-----||


   Chorus
    Q.=147
    E5                                 N.C.                   G5      D5
   12/8
                                              ~~
    H.      +Q.   Q.     H.      +Q.   Q.     W.              H.      H.
||----------------0----|--------------------|---------------|---------------|
||o--------------------|-0-------(0)--------|---------------|---------------|
||---------------------|--------------------|---------------|---------7-----|
||--2-------(2)--------|--------------------|---------------|-5-------7-----|
||o-2-------(2)--------|---------------3----|-2-------------|-5-------5-----|
||--0-------(0)--------|--------------------|---------------|-3-------------|
|
|                                             ~~
|   H.      +Q.   Q.     H.      +Q.   Q.     W.              H.      H.
||----------------0----|--------------------|---------------|---------------|
||o--------------------|-0-------(0)--------|---------------|---------------|
||---------------------|---------------5----|-4-------------|---------7-----|
||--2-------(2)--------|--------------------|---------------|-5-------7-----|
||o-2-------(2)--------|--------------------|---------------|-5-------5-----|
||--0-------(0)--------|--------------------|---------------|-3-------------|


                                                        D.S. al Coda
                                                        D.S. al Coda
  E5                                 N.C.                   F5      G5
                                            ~~
  H.      +Q.   Q.     H.      +Q.   Q.     W.              H.      H.
|---------------0----|--------------------|---------------|----------------||
|--------------------|-0-------(0)--------|---------------|---------------o||
|--------------------|--------------------|---------------|----------------||
|-2-------(2)--------|--------------------|---------------|-3-------5------||
|-2-------(2)--------|---------------3----|-2-------------|-3-------5-----o||
|-0-------(0)--------|--------------------|---------------|-1-------3------||
|
|                                           ~~
| H.      +Q.   Q.     H.      +Q.   Q.     W.              H.      H.
|---------------0----|--------------------|---------------|----------------||
|--------------------|-0-------(0)--------|---------------|---------------o||
|--------------------|---------------5----|-4-------------|----------------||
|-2-------(2)--------|--------------------|---------------|-3-------5------||
|-2-------(2)--------|--------------------|---------------|-3-------5-----o||
|-0-------(0)--------|--------------------|---------------|-1-------3------||


 Guitar Solo
  Q=109
  &
  N.C.      E5                C5    G5
 4/4
  Gtr I
   ~~~~~~~~~~~~~~~~~~~~       ~~              ~~
   H.              +E  S  S   H.        S  S  E
|---------------------------|----------12p11----|
|-10--------------(10)-9h10-|-9--------------13-|
|---------------------------|-------------------|
|---------------------------|-------------------|
|---------------------------|-------------------|
|---------------------------|-------------------|
|
| Gtr II
|  PM-----|
|  S  S S S H.                H     H
|---------------------------|-------------------|
|---------------------------|-------------------|
|---------------------------|-5-----------------|
|-----------2---------------|-5-----5-----------|
|-----------2---------------|-3-----5-----------|
|--0--0-0-0-0---------------|-------3-----------|


  N.C.       A5
    ~~~~            ~~
   +Q         S  S  H     S  S
|------------22p19-------------|
|-(13)-------------20----19h20-|
|------------------------------|
|------------------------------|
|------------------------------|
|------------------------------|
|
|   PM-----|
|   S  S S S  H.
|------------------------------|
|------------------------------|
|-------------2----------------|
|-------------2----------------|
|---0--0-0-0--0----------------|
|------------------------------|


  C5                                              F5
   T  T  T  T  T  T  T  T  T  T  T  T  T  T  T  T  T  T  T  T  T  T  T  T  T  T  T  T  T  T  S
|-20-19-19-22-19-19-22-19-20-19-19-22-19-20-19-19-22-19-20-19-19-22-19-20-19-19-22-19-19-19-22-|
|----------------------------------------------------------------------------------------------|
|----------------------------------------------------------------------------------------------|
|----------------------------------------------------------------------------------------------|
|----------------------------------------------------------------------------------------------|
|----------------------------------------------------------------------------------------------|
|
|  H                                               H
|----------------------------------------------------------------------------------------------|
|----------------------------------------------------------------------------------------------|
|--5-----------------------------------------------5-------------------------------------------|
|--5-----------------------------------------------3-------------------------------------------|
|--3-------------------------------------------------------------------------------------------|
|----------------------------------------------------------------------------------------------|


  N.C.         E5
   ~~~~~~~~~~~~~~~~~~
   Q            +H       T  T  T  T  T  T  T  T
|-22b24========(22)r----19-20-19-17----17-19-20-|
|-22b24========(22)r----------------20----------|
|-----------------------------------------------|
|-----------------------------------------------|
|-----------------------------------------------|
|-----------------------------------------------|
|
|  PM--------|
|  S     S S S   H.
|-----------------------------------------------|
|-----------------------------------------------|
|-----------------------------------------------|
|----------------2------------------------------|
|----------------2------------------------------|
|--0-----0-0-0---0------------------------------|


  C5            G5
   ~~~~~~~~~~~~
   Q      Q.       T  T  T  T  T  S  T  E
|-20b22--20b22----------------14p11-14p11-|
|-18b20--18b20-------------15-------------|
|-----------------14-16-17----------------|
|-----------------------------------------|
|-----------------------------------------|
|-----------------------------------------|
|
|  H            H
|-----------------------------------------|
|-----------------------------------------|
|--5--------------------------------------|
|--5------------5-------------------------|
|--3------------5-------------------------|
|---------------3-------------------------|


  N.C.              A5
   T  S.    T  S.    T  S.  T  S.  E     +Q.
|-14p11----14p11----14p11--14p11--15b17-(15)---|
|----------------------------------------------|
|----------------------------------------------|
|----------------------------------------------|
|----------------------------------------------|
|----------------------------------------------|
|
|  PM-------------|
|  S     S  S     S  H.
|----------------------------------------------|
|----------------------------------------------|
|--------------------2-------------------------|
|--------------------2-------------------------|
|--0-----0--0-----0--0-------------------------|
|----------------------------------------------|


  C5                    F5
   Q       +S   S  S  S  Q       E  S  S
|-15pb17r=(15)-15-11-12-12pb14r=12-11----|
|-------------------------------------13-|
|----------------------------------------|
|----------------------------------------|
|----------------------------------------|
|----------------------------------------|
|
|  H                     H
|----------------------------------------|
|----------------------------------------|
|--5---------------------5---------------|
|--5---------------------3---------------|
|--3-------------------------------------|
|----------------------------------------|


  N.C.      E5
             ~~~~~~~~~~~
                        |--3--|
   E    E    H      +E  S  S  S
|-------------------------------|
|-10h==12---12-----(12)-8-10-12-|
|-------------------------------|
|-------------------------------|
|-------------------------------|
|-------------------------------|
|
|  PM-----|
|  S S  S S  H.
|-------------------------------|
|-------------------------------|
|-------------------------------|
|------------2------------------|
|------------2------------------|
|--0-0--0-0--0------------------|


  C5                                  G5
   |------6-------|  |------6-------|  |------6-------|  |------6-------|
   S  S  S  S  S  S  S  S  S  S  S  S  S  S  S  S  S  S  S  S  S  S  S  S
|-------------------------------------------------------------------------|
|-10-13-10-12-10-13-10-12-10-13-10-12-10-13-10-12-10-13-10-12-10-13-10-12-|
|-------------------------------------------------------------------------|
|-------------------------------------------------------------------------|
|-------------------------------------------------------------------------|
|-------------------------------------------------------------------------|
|
|  H                                   H
|-------------------------------------------------------------------------|
|-------------------------------------------------------------------------|
|--5----------------------------------------------------------------------|
|--5-----------------------------------5----------------------------------|
|--3-----------------------------------5----------------------------------|
|--------------------------------------3----------------------------------|


  N.C.             A5
   |------6------| |----6-----|     |----6----|     |----6----|
   S S   S S S   S S  S S S S S  a  S S S S S S  a  S S S S S S
|-12-8---8-8-8---8-8--8-8-8-8-8-10-12-8-8-8-8-8-10-12-8-8-8-8-8-|
|---------------------------------------------------------------|
|---------------------------------------------------------------|
|---------------------------------------------------------------|
|---------------------------------------------------------------|
|---------------------------------------------------------------|
|
|  PM----------|
|  S   S   S   S   H.
|---------------------------------------------------------------|
|---------------------------------------------------------------|
|------------------2--------------------------------------------|
|------------------2--------------------------------------------|
|--0---0---0---0---0--------------------------------------------|
|---------------------------------------------------------------|


  C5                                   F5
            TP          TP          TP                                     TP
   |--6--|     |--6--|     |--6--|        |--6--|     |--6--|     |--6--|
   T  T  T  E  T  T  T  S  T  T  T  E.    T  T  T  S  T  T  T  S  T  T  T  E
|-------17-19-------17-19-------17-19----------17-19-------17-19-------17-19-|
|-19-20-------19-20-------19-20----------19-20-------19-20-------19-20-------|
|----------------------------------------------------------------------------|
|----------------------------------------------------------------------------|
|----------------------------------------------------------------------------|
|----------------------------------------------------------------------------|
|
|  H                                   H
|----------------------------------------------------------------------------|
|----------------------------------------------------------------------------|
|--5-----------------------------------5-------------------------------------|
|--5-----------------------------------3-------------------------------------|
|--3-------------------------------------------------------------------------|
|----------------------------------------------------------------------------|


  N.C.             E5
   |------6------|  |-----6-----| |----6-----|
   S S   S S S   S  S  S S  S S S S S S  S S S  S  S  S  S
|-19---------------17------19-----------15-----24-22-19-15-|
|----0---0-0-0---0-----0-0----0-0-0-0-0----0-0-------------|
|----------------------------------------------------------|
|----------------------------------------------------------|
|----------------------------------------------------------|
|----------------------------------------------------------|
|
|  PM----------|
|  S   S   S   S    H.
|----------------------------------------------------------|
|----------------------------------------------------------|
|----------------------------------------------------------|
|-------------------2--------------------------------------|
|-------------------2--------------------------------------|
|--0---0---0---0----0--------------------------------------|


  C5                         G5
   |----6----|  |----6-----| |----6-----|
   S S S S S S  S S S  S S S S S S  S S S  S  S  S  S
|-19-----------17-----19-----------15-----24-22-19-15-|
|----0-0-0-0-0----0-0----0-0-0-0-0----0-0-------------|
|-----------------------------------------------------|
|-----------------------------------------------------|
|-----------------------------------------------------|
|-----------------------------------------------------|
|
|  H                         H
|-----------------------------------------------------|
|-----------------------------------------------------|
|--5--------------------------------------------------|
|--5-------------------------5------------------------|
|--3-------------------------5------------------------|
|----------------------------3------------------------|


                                                      D.S.S. al Dbl. Coda
  N.C.           A5                          C5              F5
                                                               ~~~~~~~~~~
   E       +Q.       T T  E      +S   +Q      +Q        +Q    +Q    +Q
|-22b24---(22)-----------24b26==(24)-(24)--|-(24)b25===(24)r=(24)--(24)r--||
|----------------------x-------------------|------------------------------||
|--------------------x---------------------|------------------------------||
|------------------------------------------|------------------------------||
|------------------------------------------|------------------------------||
|------------------------------------------|------------------------------||
|
|  PM----------|
|  S    S   S  S H.                            H               H
|------------------------------------------|------------------------------||
|------------------------------------------|------------------------------||
|----------------2-------------------------|---5---------------5----------||
|----------------2-------------------------|---5---------------3----------||
|--0----0---0--0-0-------------------------|---3--------------------------||
|------------------------------------------|------------------------------||


   Bridge
    Q=147
    &&
    A5         N.C.              Ab5        N.C.
    Gtrs I, II
               PM|     ~~                   PM|     ~~
    W          S S S S H.        W          S S S S H.
||-----------|-----------------|----------|---------------|
||o----------|-----------------|----------|---------5-----|
||-----------|-----4-5-4-------|----------|-----4-5-------|
||--7--------|-7-7-------------|-6--------|-7-7-----------|
||o-7--------|-----------------|-6--------|---------------|
||--5--------|-----------------|-4--------|---------------|


  C5         N.C.              B5
  Gtr I
             PM----| ~~
  W          S S S S H.        W
|----------|-----------------|----------|
|----------|-6-6-5---5-------|----------|
|-5--------|-------7---------|-4--------|
|-5--------|-----------------|-4--------|
|-3--------|-----------------|-2--------|
|----------|-----------------|----------|
|
| Gtr II
|            PM----| ~~
| W          S S S S H.        W
|----------|-----------------|----------|
|----------|-6-6-5---5-------|----------|
|-5--------|-------7---------|-4--------|
|-5--------|-----------------|-4--------|
|-3--------|-----------------|-2--------|
|----------|-----------------|----------|


 1.                      2.
  N.C.
  E. S S S E  E. E. E     E. S S S E  E. E. E
|----------------------||----------------------|
|---------------------o||----------------------|
|-5--4h5p4---10--7-----||-5--4h5p4---10--7-----|
|----------6--------9--||----------6--------9--|
|---------------------o||----------------------|
|----------------------||----------------------|
|
| E. S S S E  E. E. E     E. S S S E  E. E. E
|-5--4h5p4---10--7--4--||-5--4h5p4---10--7--4--|
|----------5----------o||----------5-----------|
|----------------------||----------------------|
|----------------------||----------------------|
|---------------------o||----------------------|
|----------------------||----------------------|


  A5           N.C.                     Ab5         N.C.
                PM|      ~~~                         PM|      ~~~
    W           S S S S  H.              W           S S S S  H.
|------------|------------------------|-----------|------------------------|
|------------|------------------------|-----------|-----------5------------|
|------------|------4-5--4------------|-----------|------4-5---------------|
|---7--------|--7-7-------------------|--6--------|--7-7-------------------|
|---7--------|------------------------|--6--------|------------------------|
|---5--------|------------------------|--4--------|------------------------|
|
|   ~~~                                  ~~
|   W           Q        Q     Q   Q     W           Q        Q     Q   Q
|------------|------------------------|-----------|------------------------|
|-/10--------|-10-------12---/13--12--|-12--------|-12-------13---/15--13--|
|------------|------------------------|-----------|------------------------|
|------------|------------------------|-----------|------------------------|
|------------|------------------------|-----------|------------------------|
|------------|------------------------|-----------|------------------------|


                                                     H.=H               Q=120
  C5          N.C.                       B5          N.C.
                PM----|  ~~~
   W            S S S S  H.               W          E. S S S E  E.  E.  E
|-----------|--------------------------|-----------|-8--7h8p7---13--10-------||
|-----------|---6-6-5----5-------------|-----------|----------9---------12---||
|--5--------|---------7----------------|--4--------|-------------------------||
|--5--------|--------------------------|--4--------|-------------------------||
|--3--------|--------------------------|--2--------|-------------------------||
|-----------|--------------------------|-----------|-------------------------||
|
|  ~~                                     ~~
|  W            Q        Q    Q   E  E    W          E. S S S E  E.  E.  E
|-----------|--------------------------|-----------|-5--4h5p4---10---7---4---||
|-17--------|-/17-------15---13--12s13-|-12--------|----------5--------------||
|-----------|--------------------------|-----------|-------------------------||
|-----------|--------------------------|-----------|-------------------------||
|-----------|--------------------------|-----------|-------------------------||
|-----------|--------------------------|-----------|-------------------------||


 Interlude
  Q.=87
  N.C.
 9/8
  Gtr I
   T      T      T      T      T      T        T      T      T
   |-3-|  |-3-|  |-3-|  |-3-|  |-3-|  |-3--|   |-3-|  |-3-|  |-3-|
   S S S  S S S  S S S  S S S  S S S  S s +S   S S S  S S S  S S S
|-12p8p5-12p8p5-12p8p5------------------------11p7p4-11p7p4-11p7p4-|
|----------------------12p8p5-12p8p5-12p8-(8)----------------------|
|------------------------------------------------------------------|
|------------------------------------------------------------------|
|------------------------------------------------------------------|
|------------------------------------------------------------------|


 7/8
   T      T      T        T      T      T      T
   |-3-|  |-3-|  |-3--|   |-3-|  |-3-|  |-3-|  |-3-|
   S S S  S S S  S s +S   S S S  S S S  S S S  S S S
|------------------------10p6p3-10p6p3-----------------|
|-11p7p4-11p7p4-11p7-(7)---------------10p6p3-10p6p3---|
|------------------------------------------------------|
|------------------------------------------------------|
|------------------------------------------------------|
|------------------------------------------------------|


   9/8
    Gtr I
     T        T        T        T        T        T          T        T        T
     |--3--|  |--3--|  |--3--|  |--3--|  |--3--|  |--3---|   |--3--|  |--3--|  |--3--|
     S  S  S  S  S  S  S  S  S  S  S  S  S  S  S  S  S  +S   S  S  S  S  S  S  S  S  S
||--12p=8p=5-12p=8p=5-12p=8p=5------------------------------11p=7p=4-11p=7p=4-11p=7p=4-|
||o----------------------------12p=8p=5-12p=8p=5-12p=8--(8)----------------------------|
||-------------------------------------------------------------------------------------|
||-------------------------------------------------------------------------------------|
||o------------------------------------------------------------------------------------|
||-------------------------------------------------------------------------------------|
|
|   Gtr II
|    T        T        T        T        T        T          T        T        T
|    |--3--|  |--3--|  |--3--|  |--3--|  |--3--|  |--3---|   |--3--|  |--3--|  |--3--|
|    S  S  S  S  S  S  S  S  S  S  S  S  S  S  S  S  S  +S   S  S  S  S  S  S  S  S  S
||--19p15p12-19p15p12-19p15p12------------------------------18p14p11-18p14p11-18p14p11-|
||o----------------------------19p15p12-19p15p12-19p15-(15)----------------------------|
||-------------------------------------------------------------------------------------|
||-------------------------------------------------------------------------------------|
||o------------------------------------------------------------------------------------|
||-------------------------------------------------------------------------------------|


 7/8
   T        T        T          T        T        T        T
   |--3--|  |--3--|  |--3---|   |--3--|  |--3--|  |--3--|  |--3--|
   S  S  S  S  S  S  S  S  +S   S  S  S  S  S  S  S  S  S  S  S  S    3x
|------------------------------10p=6p=3-10p=6p=3----------------------||
|-11p=7p=4-11p=7p=4-11p=7--(7)-------------------10p=6p=3-10p=6p=3---o||
|---------------------------------------------------------------------||
|---------------------------------------------------------------------||
|--------------------------------------------------------------------o||
|---------------------------------------------------------------------||
|
|  T        T        T          T        T        T        T
|  |--3--|  |--3--|  |--3---|   |--3--|  |--3--|  |--3--|  |--3--|
|  S  S  S  S  S  S  S  S  +S   S  S  S  S  S  S  S  S  S  S  S  S    3x
|------------------------------17p13p10-17p13p10----------------------||
|-18p14p11-18p14p11-18p14-(14)-------------------17p13p10-17p13p10---o||
|---------------------------------------------------------------------||
|---------------------------------------------------------------------||
|--------------------------------------------------------------------o||
|---------------------------------------------------------------------||


 Outro
  E5   B5   Eb5    Bb5  D5 A5   F5    C5    G5      D5    F5  C5
 9/8              7/8          9/8                 7/8
  Gtrs I, II
  Q.   Q.   Q.     Q.   Q  Q     Q.    Q.    Q.      Q.    Q   Q
|----------------|------------|-------------------|-----------------|
|----------------|------------|-------------------|-----------------|
|-9---------8----|------7-----|-10----------12----|-------10--------|
|-9----9----8----|-8----7--7--|-10----10----12----|-12----10--10----|
|-7----9----6----|-8----5--7--|--8----10----10----|-12-----8--10----|
|------7---------|-6-------5--|--------8----------|-10---------8----|


  E5      B5    Eb5     Bb5   D5  A5
 9/8                   7/8
  Gtr I
   Q.      Q.    Q.      Q.    Q   Q
|---------------------|---------------|
|---------------------|---------------|
|--9-------------8----|--------7------|
|--9-------9-----8----|--8-----7---7--|
|--7-------9-----6----|--8-----5---7--|
|----------7----------|--6---------5--|
|
| Gtr II
|  Q.      Q.    Q.      Q.    Q   Q
|-24b26r========16----|-19----17--16--|
|---------15----------|---------------|
|---------------------|---------------|
|---------------------|---------------|
|---------------------|---------------|
|---------------------|---------------|


  F5    C5    G5      D5    F5  C5      E5
 9/8                 7/8               9/8
   Q.    Q.    Q.      Q.    Q   Q       Q.   H.
|-------------------|-----------------|-------------*|
|-------------------|-----------------|-------------*|
|-10----------12----|-------10--------|--9\---------*|
|-10----10----12----|-12----10--10----|--9\---------*|
|--8----10----10----|-12-----8--10----|--7\---------*|
|--------8----------|-10---------8----|-------------*|
|
|  Q.    Q.    Q.      Q.    Q   E  E    Q.   H.
|-17----19----17----|-16----13--12s13-|-12\---------*|
|-------------------|-----------------|-------------*|
|-------------------|-----------------|-------------*|
|-------------------|-----------------|-------------*|
|-------------------|-----------------|-------------*|
|-------------------|-----------------|-------------*|



Duration Legend
---------------
W - whole; H - half; Q - quarter; E - 8th; S - 16th; T - 32nd; X - 64th; a - acciaccatura
+ - note tied to previous; . - note dotted; .. - note double dotted
Uncapitalized letters represent notes that are staccato (1/2 duration)
Irregular groupings are notated above the duration line
Duration letters will always appear directly above the note/fret number it represents the
duration for.  Duration letters with no fret number below them represent rests.  Multi-
bar rests are notated in the form Wxn, where n is the number of bars to rest for.  Low
melody durations appear below the staff

Tablature Legend
----------------
 h   - hammer-on
 p   - pull-off
 b   - bend
 pb  - pre-bend
 r   - bend release (if no number after the r, then release immediately)
 /\  - slide into or out of (from/to "nowhere")
 s   - legato slide
 S   - shift slide
 - natural harmonic
[n]  - artificial harmonic
n(n) - tapped harmonic
 ~   - vibrato
 tr  - trill
 T   - tap
 TP  - trem. picking
 PM  - palm muting
\n/  - tremolo bar dip; n = amount to dip
 \n  - tremolo bar down
 n/  - tremolo bar up
/n\  - tremolo bar inverted dip
 =   - hold bend; also acts as connecting device for hammers/pulls
 <> - volume swell (louder/softer)
 x   - on rhythm slash represents muted slash
 o   - on rhythm slash represents single note slash

Misc Legend
-----------
 |  - bar
||  - double bar
||o - repeat start
o|| - repeat end
*|  - double bar (ending)
 :  - bar (freetime)
 $  - Segno
 &  - Coda
Tempo markers -  = BPM(8/16=s8/s16), where s8 = swing 8ths, s16 = swing 16ths


            
            
Suggest correction
Creating personal tab
Creating personal tab
You can edit any tab online and save it as your Personal.

You can edit, replace or remove any tab part or add personal notes – all changes will be seen only by you.

Personal tabs can be accessed anytime from any device, even offline.
Learn more »
Give kudos to tab author, rate the tab!
1 2 3 4 5
comments
print report bad tab
guest
You may want to rate the tab now too:
select rating
Wanna post a correction for this tab? Suggest correction