Oops, an error
Loading. Please wait.

Together As One Tab

version 1
version 1

Whole song

Interactive

5,641 views 15 this week
3 commentsread comments
1 2 3 4 5
please rate
add to favorites
launch autoscroll
font size
0
reset
how to read this tab
guitar tuner
Tab Pro tools
  • play this tab
  • loop segment
  • change instrument
  • show fretboard
  • metronome
×
Best way to learn
"Together As One"
Autoscroll
slow
fast
+/-
esc
set tempo
stop
Death: Together as one

Tuning: D 

Riff 1a (both guitars. fast)
|-------------------------|-------------------------|
|-------------------------|-------------------------|
|-------------------------|-------------------------|
|-------------------------|-------------------------|
|-------------44444444444-|-------44444455555-------|
|--2222222222-------------|-22222-------------33333-|
   ................................................. 

Riff 1b (both guitars, fast)
|-------------------------|-------------------------|
|-------------------------|-------------------------|
|-------------------------|-------------------------|
|-------------------------|-------------------------|
|-------------44444444444-|-------44444433333-------|
|--2222222222-------------|-22222-------------11111-|
   ................................................

Riff 1c (variation over riff 1a played by guitar 2)
|-------------------------|-------------------------|
|-------------------------|-------------------------|
|-------------99999999999-|-------999999101010------|
|--7777777777-------------|-77777------------- 888--|
|-------------------------|-------------------------|
|-------------------------|-------------------------|
   ...............................................

Riff 1d (variation over riff 1b played by guitar 2)
|-------------------------|-------------------------|
|-------------------------|-------------------------|
|-------------99999999999-|-------999999888---------|
|--7777777777-------------|-77777-----------666-----|
|-------------------------|-------------------------|
|-------------------------|-------------------------|


Riff 2a (both gutars, bit slower)
|----------------------------------|---------------------------------|
|----------------------------------|---------------------------------|
|----------------------------------|---------------------------------|
|----------------------------------|---------------------------------|
|----------------------------------|---------------------------------|
|--0-0-0-0-0-0-0-1-1-1-1-1-1-1-1-1-|-0-0-0-2-2-2-1-1-1-0-0-0-0-0-0-0-|
   

Riff 2b (both guitars)
|-----------------------------------|
|-----------------------------------|
|-----------------------------------|
|-----------------------------------|
|--------------------7\9---10\9-7/9-|
|--1-1-1-1-1-1-1-1-7-----7----------|
                   .     . 

Riff 3 (both guitars; see note)                                                
|----------------------------------|---------------------------------|
|--*-------*-----------------------|-*-------*-----------------------|
|----------------------------------|---------------------------------|
|--4-------8-----------------------|-4-------7-----------------------|
|--2-2-2-2-6-----------------------|-2-2-2-2-5-----------------------|
|----------------------------------|---------------------------------|
     . . .                             . . .

*-note: guitar 1 plays only chords while guitar 2 plays also muted stuff
  between them. (that's what i hear but could be wrong;anyway-sounds good)

Riff 4 (both guitars)
|----------------------------------|----------------------------------|
|----------------------------------|----------------------------------|
|----------------------------------|----------------------------------|
|----------8---7-------------------|---------8---7--------------------|
|--2-------6---5---2-------5---4---|-2-------6---5---2-------5---4----|
|--0-0-0-0---------0-0-0-0-3---2---|-0-0-0-0---------0-0-0-0-3---2----|
     . . .           . . .             . . .           . . .

and then..
|-------|
|-------|
|-------|
|-------|
|--2----| 
|--0----|


Riff 5a (both guitars)
|-----------------------------------------|
|-----------------------------------------|
|-----------------------------------------|
|-----------------------------------------|
|--5--4-----------------------------4--4--|
|--3--2------22222222222222222222---2--2--|
             ....................      

Riff 5b (both guitars) 
|------------------------------------|
|------------------------------------|
|------------------------------------|
|------------------------------------|
|--3--2------------------------------|
|--1--0------00000000000000000000----|
             ....................

Riff 6 
Under solo (guitar 2), slower  
|------------------------------------|
|------------------------------------|
|------------------------------------|
|------------------------------------|
|(2)--------------(2)------3-3-3-----|
|-0-0-0-0-00-0-0-0-0-0-0-0-1-1-1-----|  ...or at least something like that..:-)
    . . . . .. . . . . . . . . . . 

Solo part: not included yet :-(

Riff 7 (both guitars) 
|----------------------------|---------------------------------------|
|----------------------------|---------------------------------------|
|----------------------------|---------------------------------------|
|--5\4--3--------------------|-5\4--3--------------------------------|
|----------------------------|---------------------------------------|
|----------0-----0-0-0-0-0-0-|---------0-----0-0-0-0-0-0-------------|


Riff 8 (both guitars) 
|----------------------------|---------------------------------------|
|----------------------------|---------------------------------------|
|----------------------------|---------------------------------------|
|--5\4--3--------------------|-5\4--3---------------7----------------|
|----------------------------|---------------------------------------|
|----------0-----0-0-0-0-0-0-|------------0-----0-------0------------|


Riff 9 (both guitars) 
|------------------------------|---------------------------------|
|------------------------------|---------------------------------|
|------------------------------|---------------------------------|
|------8-7---------6-----------|--11---------------------------9-|
|------------------------------|-----11-----------11-------------|
|--0---------0-0-------0---0---|---------0---0-------0---0-------|


Riff 10 (both guitars) 
|----------------------------------|-----------------|
|----------------------------------|-----------------|
|----------------------------------|-----------------|
|----------8--------------6--------|-----11----------|
|--------------8-------------------|---------11------|
|--0---0-----------0---0-------0---|-0-----------0---|


Riff 11 (both guitars) 
|-------------------------------|------------------------------------|
|-------------------------------|------------------------------------|
|-------------------------------|------------------------------------|
|--7\6--5-----------------------|-7\6--5-----------------------------|
|-------------------------------|------------------------------------|
|-------------0-----0-0-0-0-0-0-|------------0-----0-0-0-0-0-0-------|


Riff 12 (both guitars) 
|-------------------------------|------------------------------------|
|-------------------------------|------------------------------------|
|-------------------------------|--------------------------9\--------|
|--7\6--5-----------------------|-7\6--5-------------------7\--------|
|-------------------------------|------------------------------------|
|-------------0-----0-0-0-0-0-0-|------------0-----0---0-------------|


continuation of above measure 
|----------------------------------|---------------------------------|
|----------------------------------|---------------------------------|
|-\-6---6---3---------------12\-11-|---------------------9\-8--8-----|
|-\-9---9---1---------------10\-9--|-14--9---------------7\-6--6-----|
|----------------------------------|-12--7---------------------------|
|--------------0---0---0-----------|---------0---0---0---------------|


riff 13 (both guitars) 
|----------------------------------|---------------------------------|
|----------------------------------|--9\8\7--------------------------|
|--3---------------12\-11--11--6---|--------7\6\5--------------------|
|--1---------------10\-9---9---4---|---------------------------------|
|----------------------------------|---------------------------------|
|------0---0---0-------------------|----------------0--0-0-0-0-0-0---|


Riff 14 (both guitars) 
|------------------------------|-------------------------------------|
|--9\8\7-----------------------|--9\8\7------------------------------|
|--------7\6\5-----------------|--------7\6\5------------------------|
|------------------------------|-------------------------------------|
|------------------------------|-------------------------------------|
|--------------0---0-0-0-0-0-0-|--------------0---0-0-0-0-0-0--------|


Riff 15 (both guitars) 
|------------------------------|-------------------------------------|
|--9\8\7-----------------------|-------------------------------------|
|--------7\6\5-----------------|--first-time-get-a-pause-here-while--|
|-------------------------5----|--Chuck-screams-"As-they-stare",-----|
|-------------------------3----|--fade-out-last-riff-15-note-at-the--|
|--------------0---0-0-0-------|--second-one-------------------------|
comments
We did not receive enough feedback on this tab! Please rate:
print report bad tab
1 2 3 4 5
3 comments total.
0 reply
Fear Of The... wrote on September 28 2008, 02:38 am

Riff 5a (both guitars)
|-----------------------------------------|
|-----------------------------------------|
|-----------------------------------------|
|-----------------------------------------|
|--6--5-----------------------------6--5--|
|--4--3------33333333333333333333---4--3--|
....................

Riff 5b (both guitars)
|------------------------------------|
|------------------------------------|
|------------------------------------|
|------------------------------------|
|--3--2------------------------------|
|--1--0------00000000000000000000----|
....................

I think it sounds more like this but i could be wrong...

0 reply
Fear Of The... wrote on September 28 2008, 02:39 am

Riff 5a (both guitars)
|-----------------------------------------|
|-----------------------------------------|
|-----------------------------------------|
|-----------------------------------------|
|--6--5-----------------------------6--5--|
|--4--3------33333333333333333333---4--3--|
....................

Riff 5b (both guitars)
|------------------------------------|
|------------------------------------|
|------------------------------------|
|------------------------------------|
|--3--2------------------------------|
|--1--0------00000000000000000000----|
....................

I think it sounds more like this but i could be wrong...

0 reply
vandal_12 wrote on November 9 2008, 08:10 pm

D-------------------------
A-------------------------
F-------------------------
C-----4---5---------------
G---3---3---4--4----------
D-2-----------3-----------

That is the last few notes for riff 2b.

I want to post or [tab]
guest
You may want to rate the tab now too:
select rating
Please do not post tabs as comments. Select "correction" instead!