Oops, an error
Loading. Please wait.

Zombie Ritual Bass

version 1
version 1
by Death
9,289 views 3 this week
3 commentsread comments
1 2 3 4 5
x 5
add to favorites
launch autoscroll
font size
0
reset
guitar tuner
backing track
0:00
0:00
Autoscroll
slow
fast
+/-
esc
set tempo
stop
Zombie Ritual - Death |
----------------------
 
TAB: by Big M
e-mail: Big_Mx@gmx.de
 
Tune down one step to D !!!
 
Intro
2x
F|---|---|---|-------------------------|
C|---|---|---|-------------------------|
G|---|---|---|-------------------------|
D|---|---|-5-|-1-----------0-----------|
 
2x
F|-------------------------|-------------------------|---|-------------------------|
C|-------------6-7-6-------|-------------------------|---|-------------------------|
G|-7-------7-8-------8-7---|-8-------7---------------|---|-------------------------|
D|-------------------------|-------------------------|-5-|-1-----------0-----------|
 
Verse
F|-----------------|------------------|
C|-----------------|------------------|
G|-------------578-|------------------|
D|-000000000000----|-4444444433337777-|
 
Fig.1
F|------------------|------------------|
C|------------------|------------------|
G|------------------|------------------|
D|-0000222211111111-|-0000444433333333-|
 
Fig.2
F|------------------|------------------|
C|------------------|------------------|
G|------------------|------------------|
D|-1234-0-----------|-4321-2---1-------|
 
Fig.3
F|------------------|----------------------------|
C|---------9--------|-10-------------------------|
G|-7----------------|-----------1010101010101010-|
D|------------------|----------------------------|
 
Pre-Chorus
F|------------------|------------------|
C|------------------|------------------|
G|---------22222222-|-33333333---------|
D|-00000000---------|---------33333333-|
 
Chorus
F|------------------|-----------------|------------------|-----------------|
C|------------------|-----------------|------------------|-----------------|
G|------------------|-----------------|------------------|-------------3---|
D|-2222222222222222-|-333-333-444-333-|-2-22222222222222-|-333-333-444-----|
 
Solo
F|-----------------|------------------|
C|-------4---4-5---|------------------|
G|-222222--22----5-|-44444444---------|
D|-----------------|---------33332222-|
 
----------------
Song structure: |
----------------
Intro       1x
Verse       6x
Fig.1       2x
Fig.2       4x
Fig.3       6x
Pre-Chorus  2x
Chorus      2x
Verse       6x
Fig.1       2x
Fig.2       2x
Fig.3       6x
Pre-Chorus  2x
Chorus      2x
Solo        6x
Chorus      2x
Suggest correction
comments
print report bad tab
3 comments total.
0 reply
Carvin-on-Bass 10 Oct 17, 2008 10:47 AM

sounds right, thanks for the tab!

0 reply
Carvin-on-Bass 10 Oct 17, 2008 10:57 AM

1 question though, why bother tuning your G string down if you don't use it?

+2 reply
arrell 207 Nov 26, 2012 04:08 PM

Second part of the intro is off key.

F|-------------6-7-6-------|-------------------------|---|-------------------------|
C|-7-------7-8-------8-7---|-------------------------|---|-------------------------|
G|-------------------------|-8-------7---------------|---|-------------------------|
D|-------------------------|-------------------------|-5-|-1-----------0-----------|

See the other tab here for a better guide.

guest
Wanna post a correction for this tab? Suggest correction