Oops, an error
Loading. Please wait.

Confused Tab

7 views 1 this week
no commentswrite comment
1 2 3 4 5
3 more votes to show rating
add to favorites
launch autoscroll
font size
0
reset
how to read this tab
guitar tuner
Autoscroll
slow
fast
+/-
esc
set tempo
stop
Help us to improve Ultimate-Guitar.com Take our survey!
×
Difficulty
intermediate
Band - Death Angel
Song - Confused
Album - Frolic Through the Park
Standard E tuning

[Intro]
e|-----------------------------------------------|
B|-----------------------------------------------|
G|-----------------------------------------------|
D|--------4-------2--------------4---------5-----|
A|--5-4-4-2---5-4-0-------5-4-4--2----4-5--3-----|
E|--3-2-2-----3-2---------3-2-2-------2-3--------|

[Verse]
e|---------------------------------|
B|---------------------------------|
G|---------------------------------|
D|---------------------------------|
A|3\4-4-4-4-4-4-4-5/4-4-4-4-4-4-4--|
E|1\2-2-2-2-2-2-2-3/2-2-2-2-2-2-2--|

e|---------------------|
B|---------------------|
G|---------------------|
D|--------4-------2----|
A|--5-4-4-2---5-4-0----|
E|--3-2-2-----3-2------|

e|---------------------------------|
B|---------------------------------|
G|---------------------------------|
D|---------------------------------|
A|3-4-4-4-4-4-4-4-5-4-4-4-4-4-4-4--|
E|1-2-2-2-2-2-2-2-3-2-2-2-2-2-2-2--|

e|-------------------|--(2nd time)-------|
B|-------------------|-------------------|
G|-------------------|-------------------|
D|--------4-------5--|--------4-------5--|
A|-5-4-4--2--4-5--3--|-5-4-4--2--4-5--3--|
E|-3-2-2-----2-3-----|-3-2-2-----2-3-----|

[Pre-Chorus]
e|-----------------------------------------------------------------------------------|
B|-----------------------------------------------------------------------------------|
G|-----------------------------------------------------------------------------------|
D|--9---7-7-7-7-7-7-7-7-7-7-7-7----------9------7-7-7-7-7-7-7-7-7-7-7-7--9-----------|
A|--7---5-5-5-5-5-5-5-5 5-5-5-5--10------7------5-5-5-5-5-5-5-5-5-5-5-5--7-----10----|
E|-------------------------------8---------------------------------------------8-----|

e|-----------------------------------------------------------------------|
B|-----------------------------------------------------------------------|
G|-----------------------------------------------------------------------|
D|7-7-7-7-7-7-7-7-7-7-7-7----------9------7-7-7-7-7-7-7-7-7-7-7-7--------|
A|5-5-5-5-5-5-5-5 5-5-5-5--10------7------5-5-5-5-5-5-5-5-5-5-5-5--5--4--|
E|-------------------------8---------------------------------------3--2--|

[Chorus]
e|--------------------------------------------------------------------|
B|--------------------------------------------------------------------|
G|--------------------------------------------------------------------|
D|--------------------------------------------------------------------|
A|-------------7-8-------------5-4-------------7-8---------7---5------|
E|-0-0-0-0-0-0-5-6-0-0-0-0-0-0-3-2-0-0-0-0-0-0-5-6-0-0-0-0-5---3------|

e|--------------------------------------------------------------------|
B|--------------------------------------------------------------------|
G|--------------------------------------------------------------------|
D|--------------------------------------------------------------------|
A|-------------7-8-------------5-4-------------7-8---------7---5---7--|
E|-0-0-0-0-0-0-5-6-0-0-0-0-0-0-3-2-0-0-0-0-0-0-5-6-0-0-0-0-5---3---5--|

[Bridge] (Watch tempo changes)
e|-------------------------------------------------------------|
B|-------------------------------------------------------------|
G|-------------------------------------------------------------|
D|-------------------------------------------------------------|
A|-7-5--4--4--4--5-7--8--8--8-7-8-7-5-4--4--4--7--8--8-8-7-8-7-|
E|-5-3--2--2--2--3-5--6--6--6-5-6-5-3-2--2--2--5--6--6-6-5-6-5-|

e|---------------------------------------------------------|
B|---------------------------------------------------------|
G|---------------------------------------------------------|
D|---------------------------------------------------------|
A|-4--4--4--5--7--8--8--8-7-8-7-5--4--4--4---7---8--8--8---|
E|-2--2--2--3--5--6--6--6-5-6-5-3--2--2--2---5---6--6--6---|

e|-----------------------------------------------------------------|
B|-----------------------------------------------------------------|
G|-----------------------------------------------------------------|
D|-----------------------------------------------------------------|
A|-----7-8-----5-4-----7-8-----5-4-----7-8-----5-4-----7-8-----5-4-|
E|-0-0-5-6-0-0-3-2-0-0-5-6-0-0-3-2-0-0-5-6-0-0-3-2-0-0-5-6-0-0-3-2-|

e|---------------------------------------------------------|
B|---------------------------------------------------------|
G|---------------------------------------------------------|
D|---------------------------------------------------------|
A|-------------------------7-8-------------------------5-4-|
E|-0-0-0-0-0-0-0-0-0-0-0-0-5-6-0-0-0-0-0-0-0-0-0-0-0-0-3-2-|

e|--------------------------------------------|
B|--------------------------------------------|
G|--------------------------------------------|
D|--------------------------------------------|
A|-2--2--2--2--2--2--7-8---2--2--2--7-------5-|
E|-0--0--0--0--0--0--5-6---0--0--0--5-------3-|

[Solo rhythm]
e|---------------------------------------------------------|
B|---------------------------------------------------------|
G|---------------------------------------------------------|
D|---------------------------------------------------------|
A|-------------------------7-8-------------------------5-4-|
E|-0-0-0-0-0-0-0-0-0-0-0-0-5-6-0-0-0-0-0-0-0-0-0-0-0-0-3-2-|

e|---------------------------------------------------------|
B|---------------------------------------------------------|
G|---------------------------------------------------------|
D|---------------------------------------------------------|
A|-------------------------7-8-----------------7--------5--|
E|-0-0-0-0-0-0-0-0-0-0-0-0-5-6-0-0-0-0-0-0-0-0-5--------3--|

e|---------------------------------------------------------|
B|---------------------------------------------------------|
G|---------------------------------------------------------|
D|-------------------------4-5-----------------------------|
A|-------------------------2-3-------------------------7-6-|
E|-2-2-2-2-2-2-2-2-2-2-2-2-----2-2-2-2-2-2-2-2-2-2-2-2-5-4-|

e|----------------------------------------------------------|
B|----------------------------------------------------------|
G|----------------------------------------------------------|
D|-------------------------4-5------------------------------|
A|-------------------------2-3-------------------7-----5----|
E|-2-2-2-2-2-2-2-2-2-2-2-2-----2-2-2-2-2-2-2-2-2-5-----3----|

e|-------------------------------------------------------|
B|-------------------------------------------------------|
G|-------------------------------------------------------|
D|-------------------------------------------------------|
A|-----7-8-----5-4-----7-8-----5-4-----7-8-----5-4-----7-|
E|-0-0-5-6-0-0-3-2-0-0-5-6-0-0-3-2-0-0-5-6-0-0-3-2-0-0-5-|

[Outro riff 1]
e|-------------------------------------------------------|
B|-------------------------------------------------------|
G|-------------------------------------------------------|
D|----------------------5--------------------------------|
A|-\5---------8--5--8----------8----5--8--5--------------|
E|-------------------------------------------8-----------|

[Outro riff 2]
e|----------------------------|
B|----------------------------|
G|----------------------------|
D|---12-------12--------------|
A|---------10--------12-------|
E|-----------------------13---|


************************************

| /  Slide up
| \  Slide down

************************************
Suggest correction
Give kudos to tab author, rate the tab!
1 2 3 4 5
comments
print report bad tab
guest
You may want to rate the tab now too:
select rating
Wanna post a correction for this tab? Suggest correction