Oops, an error
Loading. Please wait.

Looking Out For No1 Tab

620 views 1 this week
no commentswrite comment
1 2 3 4 5
3 more votes to show rating
add to favorites
launch autoscroll
font size
0
reset
how to read this tab
guitar tuner
×
Best way to learn
"Looking Out For No1"
Autoscroll
slow
fast
+/-
esc
set tempo
stop
Title: Looking Out For #1
Artist: Death By Stereo
Album: If Look's Could Kill, I'd Watch You Die
Tuning: Standard (E A D G B E)

Tabbed by: Charles Bui (shadowoftheunknown@hotmail.com)

Submitted By: Stand Alone (projectwyze13@hotmail.com)


E|----------------------------------------||
B|----------------------------------------||
G|----------77777777----------------------||
D|-99999999-77777777-22222222--5555--7777-||
A|-99999999-55555555-22222222--5555--7777-||
E|-77777777----------00000000--3333--5555-|| x2


E|---------------------------------------||
B|---------------------------------------||
G|---------------------------------------||
D|-999\7/999\7/999\7/9~------------------||
A|-999\7/999\7/999\7/9~------------------||
E|-777\5/777\5/777\5/7~------------------||


E|----------------------------------------||
B|----------------------------------------||
G|----------77777777----------------------||
D|-99999999-77777777-22222222--5555--7777-||
A|-99999999-55555555-22222222--5555--7777-||
E|-77777777----------00000000--3333--5555-|| x2


E|----------------------||
B|----------------------||
G|----------------------||
D|-999\7/999\7/999\7/9~-||
A|-999\7/999\7/999\7/9~-||
E|-777\5/777\5/777\5/7~-||


E|-----------------------------------------------------------------------||
B|-----------------------------------------------------------------------||
G|----777------------777---------------777-------------------------------||
D|-99-777-777-99--99-777-777-99----999-777-222--4-4-4-555-777----999\7/9-||
A|-99-555-777-99--99-555-777-99----999-555-222--4-4-4-555-777----999\7/9-||
E|-77-----555-77--77-----555-77----777-----000--2p0h2-333-555----777\5/7-||


E|----------------------------------------||
B|----------------------------------------||
G|----------77777777----------------------||
D|-99999999-77777777-22222222--5555--7777-||
A|-99999999-55555555-22222222--5555--7777-||
E|-77777777----------00000000--3333--5555-|| x2


E|----------------------||
B|----------------------||
G|----------------------||
D|-999\7/999\7/999\7/9~-||
A|-999\7/999\7/999\7/9~-||
E|-777\5/777\5/777\5/7~-||


E|------------------------------------------------------------||
B|------------------------------------------------------------||
G|----777------------777---------------777--------------------||
D|-99-777-777-99--99-777-777-99----999-777-222--4-4-4-555-777-||
A|-99-555-777-99--99-555-777-99----999-555-222--4-4-4-555-777-||
E|-77-----555-77--77-----555-77----777-----000--2p0h2-333-555-||


E|------------------------------||
B|------------------------------||
G|------------------------------||
D|-999\7/999\7/999\7/9-------7~-||
A|-999\7/999\7/999\7/9-------7~-||
E|-777\5/777\5/777\5/7-------9~-||


Start of the *Solo*         
E|-----------------||
B|-----------------||
G|-----------------||
D|-----------------||
A|-/9~10~9~7~10~9~-||
E|-----------------||


Do this *solo* part 8 times and end on this powerchord
E|-------------------------------------------||------||
B|-------------------------------------------||------||
G|-------------------------------------------||------||
D|----------9--------------------------------||--9~--||
A|----7-9-10-10-9-7-9-10-9-7--7--------------||--9~--||
E|---7----------------------10-10-9-7--------||--7~--||


E|------------------------------------------------------------------------||
B|------------------------------------------------------------------------||
G|----------77777777-----------------------------77777777-----------------||
D|-99999999-77777777-2222222-5555-7777--99999999-77777777-22222222-55x-33x||
A|-99999999-55555555-2222222-5555-7777--99999999-55555555-22222222-55x-33x||
E|-77777777----------0000000-3333-5555--77777777----------00000000-33x-55x||


E|----------------------------------------||
B|----------------------------------------||
G|----------77777777----------------------||
D|-99999999-77777777-22222222--5555--7777-||
A|-99999999-55555555-22222222--5555--7777-||
E|-77777777----------00000000--3333--5555-|| x2


E|----------------------||
B|----------------------||
G|----------------------||
D|-999\7/999\7/999\7/9~-||
A|-999\7/999\7/999\7/9~-||
E|-777\5/777\5/777\5/7~-||


E|------------------------------------------------------------||
B|------------------------------------------------------------||
G|----777------------777---------------777--------------------||
D|-99-777-777-99--99-777-777-99----999-777-222--4-4-4-555-777-||
A|-99-555-777-99--99-555-777-99----999-555-222--4-4-4-555-777-||
E|-77-----555-77--77-----555-77----777-----000--2p0h2-333-555-||


End the song with this...
E|----------------------||
B|----------------------||
G|----------------------||
D|-999\7/999\7/999\7/9~-||
A|-999\7/999\7/999\7/9~-||
E|-777\5/777\5/777\5/7~-||
Suggest correction
Give kudos to tab author, rate the tab!
1 2 3 4 5
comments
print report bad tab
guest
You may want to rate the tab now too:
select rating
Wanna post a correction for this tab? Suggest correction