Oops, an error
Loading. Please wait.

405 Tab

version 1
version 1

Acoustic

Whole song

Interactive

40,284 views 18 this week
2 commentsread comments
1 2 3 4 5
excellent!
x 9
add to favorites
launch autoscroll
font size
0
reset
how to read this tab
guitar tuner
Tab Pro tools
  • play this tab
  • loop segment
  • change instrument
  • show fretboard
  • metronome
×
Best way to learn
"405"
Autoscroll
slow
fast
+/-
esc
set tempo
stop
Contributor
------------------------------------------------------------------------------
                     405 (Acoustic) – Death Cab for Cutie
------------------------------------------------------------------------------

Acoustic version of song on YouTube (www.youtube.com/watch?v=FYysmuoWqng)
Tabbed by: Pat Malavi (pat.malavi@gmail.com)

Tuning: Standard


Intro (Riff 1 – repeat twice):

e|---5-------5-------7--------10------------3-------3-------3----------------|
B|-------3-------3-------5----------8\--1-------1-------1-------1---1--------|
G|---------------------------------------------------------------------------|
D|---------------------------------------------------------------------------|
A|-5---5---5---5--/7---7--/10----10---3---3---3---3---3---3---3---3----------|
E|---------------------------------------------------------------------------|


Verse 1:

e|---0---0---0---0-----------------------------------------------------------|
B|-------------------0---0---0---0---5/--7/--8---0---------------------------|
G|---------------------------------------------------------------------------|
D|---------------------------------------------------------------------------|
A|-3---3---3---3-------------------3/--5/--7---7-----------------------------|
E|-----------------3---3---3---3---------------------------------------------|

       I took the 405           and drove a stake down into your 


e|---0---0---0---0-------------------------------0---0---0---0---------------|
B|-------------------------2---2---2---2-------------------------------------|
G|---------------------------------------------------------------------------|
D|---------------------------------------------------------------------------|
A|-3---3---3---3---------0---0---0---0---------3---3---3---3-----------------|
E|---------------------------------------------------------------------------|

   center and stated that it’s never ever been better than this

Riff 2:

e|---------------------------------------------------------------------------|
B|---------------------------------------------------------------------------|
G|-----0---0---0-------------------------------------------------------------|
D|----------------9\---------------------------------------------------------|
A|-/10---9---10--------------------------------------------------------------|
E|---------------------------------------------------------------------------|


Verse 2:

e|---0---0---0---0-----------------------------------------------------------|
B|-------------------0---0---0---0---------5/--7/--8---0---------------------|
G|---------------------------------------------------------------------------|
D|---------------------------------------------------------------------------|
A|-3---3---3---3-------------------------3/--5/--7---7-----------------------|
E|-----------------3---3---3---3---------------------------------------------|

       I hung my   favorite shirt on the floorboard wrinkled up  


e|---0---0---0---0-----------------------------0---0---0---0-----------------|
B|-----------------------------2---2---2---2---------------------------------|
G|---------------------------------------------------------------------------|
D|---------------------------------------------------------------------------|
A|-3---3---3---3-------------0---0---0---0---3---3---3---3-------------------|
E|---------------------------------------------------------------------------|

  from pulling, pushing, and tasting, tasting 

Riff 2:

e|---------------------------------------------------------------------------|
B|---------------------------------------------------------------------------|
G|-----0---0---0-------------------------------------------------------------|
D|----------------9\---------------------------------------------------------|
A|-/10---9---10--------------------------------------------------------------|
E|---------------------------------------------------------------------------|


Chorus:

     Em              A
e|---0---------------0-------------------------------------------------------|
B|---0---------------2-----------------5---5---3---3-------------------------|
G|---0---------------2---------------------------------4---4---0---0---------|
D|---2---------------2-------------------------------------------------------|
A|---2---------------0---------------3---3---3---3---3---3---3---3-----------|
E|---------------------------------------------------------------------------|

        You keep twisting the truth

     Em              A
e|---0---------------0-------------------------------------------------------|
B|---0---------------2-----------------5---5---3---3-------------------------|
G|---0---------------2---------------------------------4---4---0---0---------|
D|---2---------------2-------------------------------------------------------|
A|---2---------------0---------------3---3---3---3---3---3---3---3-----------|
E|---------------------------------------------------------------------------|

       That keeps me thrown askew


Riff 1 – repeat twice:

e|---5-------5-------7--------10------------3-------3-------3----------------|
B|-------3-------3-------5----------8\--1-------1-------1-------1---1--------|
G|---------------------------------------------------------------------------|
D|---------------------------------------------------------------------------|
A|-5---5---5---5--/7---7--/10----10---3---3---3---3---3---3---3---3----------|
E|---------------------------------------------------------------------------|


Verse 3:

e|---0---0---0---0-----------------------------------------------------------|
B|------------------------0---0---0---0------5/--7/--8---0-------------------|
G|---------------------------------------------------------------------------|
D|---------------------------------------------------------------------------|
A|-3---3---3---3---------------------------3/--5/--7---7---------------------|
E|----------------------3---3---3---3----------------------------------------|

       Misguided by the 405        ‘cos it lead me to an alcoholic


e|---0---0---0---0------------------------------------0---0---0---0----------|
B|------------------------2---2---2---2--------------------------------------|
G|---------------------------------------------------------------------------|
D|---------------------------------------------------------------------------|
A|-3---3---3---3--------0---0---0---0---------------3---3---3---3------------|
E|---------------------------------------------------------------------------|

   summer, I missed the exit to your parents’ house hours ago

Riff 2:

e|---------------------------------------------------------------------------|
B|---------------------------------------------------------------------------|
G|-----0---0---0-------------------------------------------------------------|
D|----------------9\---------------------------------------------------------|
A|-/10---9---10--------------------------------------------------------------|
E|---------------------------------------------------------------------------|


Verse 4:

e|---0---0---0---0-----------------------------------------------------------|
B|------------------------0---0---0---0---------5/--7/--8---0----------------|
G|---------------------------------------------------------------------------|
D|---------------------------------------------------------------------------|
A|-3---3---3---3------------------------------3/--5/--7---7------------------|
E|----------------------3---3---3---3----------------------------------------|

       Red wine and the cigarettes, hide your bad habits underneath the 


e|---0---0---0---0-------------------0---0---0---0---------------------------|
B|-------------------2---2---2---2-------------------------------------------|
G|---------------------------------------------------------------------------|
D|---------------------------------------------------------------------------|
A|-3---3---3---3---0---0---0---0---3---3---3---3-----------------------------|
E|---------------------------------------------------------------------------|

   patio,  patio,  patio,  patio    

Riff 2:

e|---------------------------------------------------------------------------|
B|---------------------------------------------------------------------------|
G|-----0---0---0-------------------------------------------------------------|
D|----------------9\---------------------------------------------------------|
A|-/10---9---10--------------------------------------------------------------|
E|---------------------------------------------------------------------------|


Chorus (repeat twice):

     Em              A
e|---0---------------0-------------------------------------------------------|
B|---0---------------2-----------------5---5---3---3-------------------------|
G|---0---------------2---------------------------------4---4---0---0---------|
D|---2---------------2-------------------------------------------------------|
A|---2---------------0---------------3---3---3---3---3---3---3---3-----------|
E|---------------------------------------------------------------------------|

        You keep twisting the truth

     Em              A
e|---0---------------0-------------------------------------------------------|
B|---0---------------2-----------------5---5---3---3-------------------------|
G|---0---------------2---------------------------------4---4---0---0---------|
D|---2---------------2-------------------------------------------------------|
A|---2---------------0---------------3---3---3---3---3---3---3---3-----------|
E|---------------------------------------------------------------------------|

       That keeps me thrown askew


Riff 1 – repeat 3 times:

e|---5-------5-------7--------10------------3-------3-------3---------------|
B|-------3-------3-------5----------8\--1-------1-------1-------1---1-------|
G|--------------------------------------------------------------------------|
D|--------------------------------------------------------------------------|
A|-5---5---5---5--/7---7--/10----10---3---3---3---3---3---3---3---3---------|
E|--------------------------------------------------------------------------|

    Ahhh ahhh ha…

Riff 1 – ending:
                                                                         Em
e|---5-------5-------7--------10------------3-------3--------------------0--|
B|-------3-------3-------5----------8\--1-------1-------1---1------------0--|
G|-----------------------------------------------------------------------0--|
D|-----------------------------------------------------------------------2--|
A|-5---5---5---5--/7---7--/10----10---3---3---3---3---3---3---3--2--0----2--|
E|---------------------------------------------------------------------2----|

    Ahhh ahhh ha…

comments
print report bad tab
2 comments total.
0 reply
Thrash1256 wrote on April 27 2008, 08:00 pm

instead of the 1 in the intro its 3


3 3

0 reply
ilovetheopera wrote on January 5 2009, 04:07 am

Interesting, sounds completely correct, but when I watched the youtube vid it looks like he's strumming..? possibly chords instead of completely fingerpicking idk.

I want to post or [tab]
guest
You may want to rate the tab now too:
select rating
Please do not post tabs as comments. Select "correction" instead!