Oops, an error
Loading. Please wait.

405 Tab

version 2
version 2

Acoustic

Whole song

Interactive

8,175 views 1 this week
2 commentsread comments
1 2 3 4 5
x 4
add to favorites
launch autoscroll
font size
0
reset
how to read this tab
guitar tuner
Autoscroll
slow
fast
+/-
esc
set tempo
stop
Help us to improve Ultimate-Guitar.com Take our survey!
×
-------------------------------------------------------------------------------
                 405 (Acoustic) - Death Cab for Cutie
-------------------------------------------------------------------------------
Tabbed by: A.J. Conner  
Email: ajconner123@gmail.com

This is on the Forbidden Love EP. 
Note: You don't have to strum exactly what is tabbed, try to mix it up
in order to give it a choppy sort of sound, like it sounds on the EP.

This tab includes both guitars parts.

Tuning: EADGBE

  Guitar One - Main Riff (Play Twice)
e|----5-------5-------7--------10---------3-------3-------3-------3----------|
B|--------3-------3-------5----------8--------1-------1-------1-------1------|
G|---------------------------------------------------------------------------|
D|---------------------------------------------------------------------------|
A|--5---5---5---5---7---7---10----10----3---3---3---3---3---3---3---3--------|
E|---------------------------------------------------------------------------|

  Guitar One - Verse Riff (Play Twice)
e|----0---0---0---0----------------------------------------------------------|
B|----5---5---5---5---0---0---0---0----5-----7---8---------------------------|
G|--------------------0---0---0---0----0-----0---0---------------------------|
D|------------------------0-------0------------------------------------------|
A|--3---3---3---3--------------------3---3/5---7---7-------------------------|
E|------------------3---3---3---3--------------------------------------------|

  Guitar One - Verse Riff cont.
e|----0---0---0---0---0---0---0---0---0---0---0------------------------------|
B|----5---5---5---5---2---2---2---2---5---5---5-------12---12----12----------|
G|--------------------0---0---0---0--------------------0----0-----0--0-------|
D|------------------2---2---2---2-------------------0----0-----0-----9-------|
A|--3---3---3---3---0---0---0---0---3---3---3---3/-10----9----10-------------|
E|---------------------------------------------------------------------------|

  Guitar One - Chorus Riff (Play Twice)
e|--0----------0-0--0---0----------------------------------------------------|
B|--0----------0-0--2-----0----5---5---3---3---0---0---0---------------------|
G|--0--(rest)--0-0--0----------0---0---0---0---4---4---0---------------------|
D|--2----------2----2----------------------------------0-0-------------------|
A|--2---------------0--------3---3---3---3---3---3---3---3-------------------|
E|--0------------------------------------------------------------------------|

  Then, Main Riff 2x, Verse Riff 2x, Chorus Riff 4x.
  Outro: Main Riff 4x, End on:

e|--3------|
B|--0------|
G|--0------|
D|--0------|
A|--2------|
E|--3------|

  Now, Guitar Two's corresponding parts:

  Guitar Two - Main Riff (Play Twice)
e|-----10----------10--------7-------10--------------------------------------|
B|------8----8------8----8---5---5----8---8----0-------0-------0-------0-----|
G|-----------0-----------0----------------0--------5-------5-------5-------0-|
D|---------------------------------------------------------------------------|
A|--10----10----10----10---7---7-------------3---3---3---3---3---3---3---3---|
E|---------------------------------10---10-----------------------------------|

  Guitar Two - Verse Riff (Play Twice)
e|---------------------------------------------------------------------------|
B|----8---8---8---8----12----12----12-----8-8-8-7-7-8-8----------------------|
G|----0---0---0---0-----0-----0-----0-----0-0-0-0-0-0-0----------------------|
D|-------------------0-----0-----0-----0--0-0-0-0-0-0-0----------------------|
A|--7---7---7---7---10----10----10----10--7-7-7-5-5-7-7----------------------|
E|--8---8---8---8------------------------------------------------------------|

  Guitar Two - Verse Riff cont.
e|---------------------------------------------------------------------------|
B|----8---8---8---8---10--------10---10---8---8---8---8-----12---12----12----|
G|----0---0---0---0----0----0----0----0---0---0---0---0------0----0-----0--0-|
D|-------------------------11---11---11-------------------0----0-----0-----9-|
A|--7---7---7---7---0----0----0----0----7---7---7---7----10----9----10-------|
E|--8---8---8---8-----------------------8---8---8---8------------------------|

  Guitar Two - Chorus Riff (Play Twice)
e|--0--0------0-------0------------------------------------------------------|
B|--0----0--------2-------2/---8--10---8--10---8--10---8-8-------------------|
G|--0--------------------------0---0---0---0---0---0---0-0-------------------|
D|--2-------2---2---2---2----------------------------------------------------|
A|--2-------0---0---0---0----7---7---7---7---7---7---7-----------------------|
E|--0------------------------8---8---8---8---8---8---8-----------------------|

  Then, Main Riff 2x, Verse Riff 2x, Chorus Riff 4x.
  Outro: Main Riff 4x, end like this:

e|-----10----------|
B|------0----------|
G|------0----------|
D|--2/--9----------|
A|--3/-10----------|
E|-----------------|

And there it is. Good luck, have fun. :]

| /  slide up
| \  slide down
| h  hammer-on
| p  pull-off
| ~  vibrato
| +  harmonic
| x  Mute note
===============================================================================
Suggest correction
comments
print report bad tab
2 comments total.
+1 reply
kellan6 103 Jan 06, 2010 02:41 AM

Incredible tab, I'm not sure how you transcribed this so well, but great job. 5 stars.

+1 reply
shestolethemoon 10 Nov 13, 2013 05:35 PM

this is way more accurate to the way ben plays it than the other tab thanks!

guest
You may want to rate the tab now too:
select rating
Wanna post a correction for this tab? Suggest correction