Oops, an error
Loading. Please wait.

405 Bass Tab

version 1
version 1

Whole song

Interactive

2,275 views 1 this week
no commentswrite comment
1 2 3 4 5
1 last vote to show rating
add to favorites
launch autoscroll
font size
0
reset
guitar tuner
Autoscroll
slow
fast
+/-
esc
set tempo
stop
Help us to improve Ultimate-Guitar.com Take our survey!
×
Death Cab For Cutie - 405
Bass Tab
Bassist - Nick Harmer
Album - We Have The Plans And We're Voting Yes



 Verses 
G|----------------|------------0---|----------------|----------------|
D|----------------|----------------|----------------|----------------|
A|------------3---|----------------|----------------|------------3---|
E|----------------|----------------|------------3---|----------------|
 
  
|----------------|----------------|
|----------------|----------------|
|----------------|------------3---|
|------------5---|----------------|
 
 Bridge 
|----------------|----------------|----------------|----------------|
|0---------------|----------------|----------------|----------------|
|----------------|----------------|3---------------|3---------------|
|----------------|0---------------|----------------|----------------|
 
 Outro  
|----------------|----------------|----------------|----------------|
|----------------|----------------|----------------|----------------|
|----------------|----------------|3---------------|----------------|
|0---------------|5---------------|----------------|----------------|
 

Ends on E|3------------|
Suggest correction
Give kudos to tab author, rate the tab!
1 2 3 4 5
comments
print report bad tab
guest
You may want to rate the tab now too:
select rating
Wanna post a correction for this tab? Suggest correction