Oops, an error
Loading. Please wait.

405 Tab

version 2
version 2

Whole song

Interactive

7,290 views 1 this week
2 commentsread comments
1 2 3 4 5
accurate
x 9
add to favorites
launch autoscroll
font size
0
reset
how to read this tab
guitar tuner
Autoscroll
slow
fast
+/-
esc
set tempo
stop
Help us to improve Ultimate-Guitar.com Take our survey!
×
Author
Difficulty
novice
It's not to hard to tab.. I wonder why the others couldn't tab it.

intro (2x)

e -----10------------10------------7-----------10------------------|
b ------8------8------8------8-----5-----5------8------8-----------|
g -----------------------------------------------------------------|
d -----------------------------------------------------------------|
a -10------10-----10-----10-----7-----7-----10-----10--------------|
e -----------------------------------------------------------------|

e ------3------------3-------------3------------3------------------|
b ------1------1-----1------1------1------1-----1------1-----------|
g -----------------------------------------------------------------|  
d -----------------------------------------------------------------| 
a -3------3-------3------3------3------3-----3------3--------------|
e -----------------------------------------------------------------|

Verse (2x)

e ---0---0---0---0-------------------0---2---3---0---0---0---0---0-|
b -------------------0---0---0---0---------------------------------|
g -----------------------------------------------------------------|
d -----------------------------------------------------------------|
a -3---3---3---3-------------------3---0---0---0---3---3---3---3---|
e -----------------3---3---3---3-----------------------------------|

e -------------------0---0---0---0--------------------------------|
b ---0---2---2---2------------------------------------------------|
g -----------------------------------0---0---0---0----------------|
d ---------------------------------5---4---5---9------------------|
a -0---0---0---0---3---3---3---3----------------------------------|
e ----------------------------------------------------------------|

Chorus (2x)

e-----------------0----0--------------------------------|
B---------------------------3----3----0----0----0----0--|
G--0-----2----------------------------------------------|
D--9-----2----------------------------------------------|
A--7-----0------3----3----3----3----3----3----3----3----|
E-------------------------------------------------------|

Intro (2x)

Verse (2x)

Chorus (4x)

Intro (4x)

End on

e -10---------------|
b --8---------------|
g ------------------|
d ------------------|
a -10---------------|
e ------------------|

Suggest correction
What's this?
You can suggest a correction to this tab. Community and Mods will review your correction and vote to approve or reject it.
comments
print report bad tab
2 comments total.
0 reply
Musial_Musician 63 wrote on May 27 2007, 02:31 pm

I believe that it starts out on the fifth fret instead of the Tenth. He seems to go up the neck in the song. Otherwise, great tab.

0 reply
guammairs2 37 wrote on December 9 2007, 12:40 pm

Yes definitely starts on the fifth fret, this tab is nice but incorrect

guest
You may want to rate the tab now too:
select rating
Please do not post tabs as comments. Select "correction" instead!