Oops, an error
Loading. Please wait.

405 Tab

version 4
version 4

Whole song

Interactive

2,800 views 6 this week
no commentswrite comment
1 2 3 4 5
please rate
add to favorites
launch autoscroll
font size
0
reset
how to read this tab
guitar tuner
Autoscroll
slow
fast
+/-
esc
set tempo
stop
Help us to improve Ultimate-Guitar.com Take our survey!
×
Author
This is "404" by Death Cab for Cutie
This version is meant for the acoustic guitar
it was taken from the live at KCBW version I saw on Youtube


This song is played with a down up picking pattern, so just strum the chords down up down up etc.

Intro/Interlude: 

|-5-5-5-5-5-5-5-5-|-7-7-7-7-10101010|-3-3-3-3-3-3-3-3-|-0-0-0-0-0-0-0-0-|
|-3-3-3-3-3-3-3-3-|-5-5-5-5-8-8-8-8-|-1-1-1-1-0-0-0-0-|-3-3-3-3-3-3-3-3-|
|-0-0-0-0-0-0-0-0-|-0-0-0-0-0-0-0-0-|-0-0-0-0-0-0-0-0-|-0-0-0-0-0-0-0-0-|
|-4-4-4-4-4-4-4-4-|-x-x-x-x-x-x-x-x-|-2-2-2-2-2-2-2-2-|-2-2-2-2-2-2-2-2-|
|-5-5-5-5-5-4-4-4-|-7-7-7-7-10101010|-3-3-3-3-3-3-3-3-|-3-3-3-3-3-3-3-3-|
|-----------------|-----------------|-----------------|-----------------|


Verse:

|-3-3-3-3-3-3-3-3-|-3-3-3-3-3-3-3-3-|-----------------|-3-3-3-3-3-3-3-3-|
|-3-3-3-3-3-3-3-3-|-3-3-3-3-3-3-3-3-|-3-3-3-3-5-5-8-8-|-3-3-3-3-3-3-3-3-|
|-0-0-0-0-0-0-0-0-|-0-0-0-0-0-0-0-0-|-2-2-2-2-0-0-0-0-|-0-0-0-0-0-0-0-0-|
|-2-2-2-2-2-2-2-2-|-0-0-0-0-0-0-0-0-|-2-2-2-2-x-x-x-x-|-2-2-2-2-2-2-2-2-|
|-3-3-3-3-3-3-3-3-|-2-2-2-2-2-2-2-2-|---------4-4-7-7-|-3-3-3-3-3-3-3-3-|
|-----------------|-3-3-3-3-3-3-3-3-|---------5-5-8-8-|-----------------|


|-----------------|-3-3-3-3-3-3-3-3-|---------------|
|-3-3-3-3-3-3-3-3-|-3-3-3-3-3-3-3-3-|---------------|
|-2-3-3-3-3-3-3-3-|-0-0-0-0-0-0-0-0-|---0---0---0---|
|-2-2-2-2-2-2-2-2-|-0-0-0-0-0-0-0-0-|-------------9-|
|-----------------|-2-2-2-2-2-2-2-2-|-10--9---10----|
|-----------------|-3-3-3-3-3-3-3-3-|---------------|


Chorus:

|-0---------------|-0---------------|-----------------|-----------------|
|-0---------------|-2---------------|---5---5---3---3-|-----------------|
|-0---------------|-2---------------|-----------------|---4---4---0---0-|
|-2---------------|-2---------------|-----------------|-----------------|
|-2---------------|-0---------------|-3---3---3---3---|-3---3---3---3---|
|-0---------------|-----------------|-----------------|-----------------|


End:

|-0---------------|
|-0---------------|
|-0---------------|
|-2---------------|
|-2---------------|
|-0---------------|



Intro x 2
Verse x 2
Chorus x 2
Interlude x 2
Verse x 2
Chorus x 4
Interlude x 4
End x 1



Verse 1:
I took the 405
and drove a state down in to your center
and stated it's never ever been better than this

Verse 2:
I hung my favorite shirt
on the floorboard wrinkled up
from pulling, pushing, and tasting, tasting

Chorus:
You keep twisting the truth
That keeps me thrown askew

Verse 3:
Misgudied by the 405 
'cause it lead me to an alcoholic summer
I missed the exit to your parents house hours ago

Verse 4:
Red wine and cigarettes,
Hide your bad habits underneath the
patio, patio, patio, patio

Chorus:
You keep twisting the truth
That keeps me thrown askew
You keep twisting the truth
That keeps me thrown askew

Ahhhhaaaahhaaaaaah
Suggest correction
What's this?
You can suggest a correction to this tab. Community and Mods will review your correction and vote to approve or reject it.
comments
We did not receive enough feedback on this tab! Please rate:
print report bad tab
1 2 3 4 5
guest
You may want to rate the tab now too:
select rating
Please do not post tabs as comments. Select "correction" instead!