Oops, an error
Loading. Please wait.

Bixby Canyon Bridge bass

version 2
version 2

Whole song

Interactive

6,849 views 1 this week
1 commentread comment
1 2 3 4 5
x 3
add to favorites
×
Save as Personal and add changes to this tab that will be seen only by you. Learn more ›
×
You can save this tab as Personal to edit and correct it or add notes. All changes will be seen only by you. Learn more »
launch autoscroll
font size
0
reset
guitar tuner
edit
Autoscroll
slow
fast
+/-
esc
set tempo
stop
Author
Bixby Canyon Bridge Bass Line
by Death Cab for Cutie

Tuning: Standard

Bass comes in at :32

0:32
G|---------------------|     G|-------------|
D|---------------------| x3  D|-------------|
A|-------------3~------|     A|-------------|
E|1~-----------------1~|     E|1~-----------|

1:16
G|---------------------|     G|----------------------------|
D|---------------------| x3  D|----------------------------|
A|-------------3~------|     A|----------------------------|
E|1~-----------------1~|     E|1~----1x--1x1X------1x--1x1x|

1:38
G|-------------------|
D|-------------------| x3
A|----------3333-----|
E|1111-1111------3333|

G|------------------------|
D|------------------------|
A|------------------------|
E|1111-1111-5555\-0000~---|

G|------------------------------------5~------------------------------------|
D|---3~--------25~---------3~-------25-----------------3~--------25~--------|
A|--3------0235-----------3------023------------------3------0235-----------|
E|11---------------3333-11------------------3335\---11---------------3333---|

2:17
G|------------------------|    G|------------------------|
D|------------------------| x3 D|------------------------|
A|555555555555888888888888|    A|555555555555------------|
E|------------------------|    E|------------111111111111|

2:40
G|-----------------------------|
D|-----------------------------|
A|555555/101010----------------|
E|-------------888-111111111111|

3:02 (@)
G|--------------------------------|
D|--------------------------------|
A|555555/101010-------------------|
E|-------------888-111111-1h333h55|

     (#) (11-11-11-11h13-11------------------| are the eleventh and thirteenth fret)
G|-------------------------------------------|
D|-------------------------------------------|
A|555555/101010------------------------------|
E|-------------888-111111-11-11-11-11h13-11--|

Okay so the @ and # signs are there for a reason when there's a @ play that segment, the 
that segment

It goes: @,@,@,@,#,@,@,#,@,@,@,@,#,@,#

4:25
G|-------------------------------------------|
D|-------------------------------------------|
A|555555/101010------------------------------|
E|-------------888-1111111111111111111111111~|

There you go... I'm confident this is 100% correct.
This is how I play it you can change it up a bit if you feel the need to.
Rate and let me know if there's any corrections (I might've forgotten a part)

            
            
Suggest correction
Creating personal tab
Creating personal tab
You can edit any tab online and save it as your Personal.

You can edit, replace or remove any tab part or add personal notes – all changes will be seen only by you.

Personal tabs can be accessed anytime from any device, even offline.
Learn more »
Give kudos to tab author, rate the tab!
1 2 3 4 5
comments
print report bad tab
1 comment total.
0 reply
designatedjake 31 Jul 04, 2012 03:21 PM

Hey great tab! Helped a lot. I think you only have one error. When Nick walks up with Chris in the # parts, he goes:

A|555555/101010-----------8-8-8-8h10-10-----|
E|-------------888-111111--------------------|

I think your tab is a whole step flat. Try out it out see. Eb isn't in this key so the 11 is what threw me off. Great job though! Thanks a lot.

guest
You may want to rate the tab now too:
select rating
Wanna post a correction for this tab? Suggest correction