Oops, an error
Loading. Please wait.

Black Sun tab

version 3
version 3

Whole song

Video

499 views 6 this week
1 commentread comment
1 2 3 4 5
3 more votes to show rating
add to favorites
×
Save as Personal and add changes to this tab that will be seen only by you. Learn more ›
×
You can save this tab as Personal to edit and correct it or add notes. All changes will be seen only by you. Learn more »
launch autoscroll
font size
0
reset
how to read this tab
guitar tuner
edit
Autoscroll
slow
fast
+/-
esc
set tempo
stop
About this tab version
This tab was taken from a live show. Was this info helpful? Yes No
Death Cab For Cutie - "Black Sun"


I'm not quite sure why, but the E string sounds odd for this song. I noticed that it tends to
sound a bit better if you tune it down between standard and a half step.

Capo 7



Verses:

e|---------------------------------|
B|---------------------------------|
G|---------------------------------|
D|-2---2---2---2---0---0---0---0---|
A|---2---2---2---2---2---2---2---2-|
E|---------------------------------|

e|--------------------------------|
B|--------------------------------|
G|--------------------------------|
D|-----------------7---7---7---7\-|
A|-0---0---0---0-----0---0---0----|
E|---3---3---3---3----------------|

e|---------------------------------|
B|---------------------------------|
G|---------------------------------|
D|-2---2---2---2---0---0---0---0---|
A|---2---2---2---2---2---2---2---2-|
E|---------------------------------|

e|---------------------------------|
B|---------------------------------|
G|---------------------------------|
D|---------------------------------|
A|-0---0---0---0---7---7---7---5---|
E|---3---3---3---3---0---0---0---0-|


Pre-chorus:

e|---------------------------------|
B|---------------------------------|
G|---------------------------------|
D|-2---2---2---2---0---0---0---0---|
A|---2---2---2---2---2---2---2---2-|
E|---------------------------------|

e|--------------------------------|
B|--------------------------------|
G|--------------------------------|
D|-----------------7---7---7---7\-|
A|-0---0---0---0-----0---0---0----|
E|---3---3---3---3----------------|

e|---------------------------------|
B|---------------------------------|
G|---------------------------------|
D|-2---2---2---2---0---0---0---0---|
A|---2---2---2---2---2---2---2---2-|
E|---------------------------------|

e|--------------------------------|
B|--------------------------------|
G|--------------------------------|
D|-----------------------------9\-|
A|-0---0---0---0---7---5---7------|
E|---3---3---3---3---0---0---0----|


Chorus:

e|-----------------------------|
B|-------1-------------3-------|
G|-----0---0---------0---0-----|
D|---2-------2-----4-------4---|
A|-3-----------3-2-----------2-|
E|-----------------------------|

e|-----------------------------|
B|-------5-------------8-------|
G|-----0---0---------0---0-----|
D|---4-------4-----0-------0---|
A|-5-----------5-7-----------7-|
E|-----------------------------|


Ending Chorus:

e|-----------------------------|
B|-------1-------------3-------|
G|-----0---0---------0---0-----|
D|---2-------2-----4-------4---|
A|-3-----------3-2-----------2-|
E|-----------------------------|

e|---------------------------------------------|
B|-------5-------------8-------------8---------|
G|-----0---0---------0---0---------0---0-------|
D|---4-------4-----0-------0-----0-------0-----|
A|-5-----------5-7-----------7-------------7---|
E|-----------------------------0-------------0-|

            
            
Suggest correction
Creating personal tab
Creating personal tab
You can edit any tab online and save it as your Personal.

You can edit, replace or remove any tab part or add personal notes – all changes will be seen only by you.

Personal tabs can be accessed anytime from any device, even offline.
Learn more »
Give kudos to tab author, rate the tab!
1 2 3 4 5
comments
print report bad tab
1 comment total.
0 reply
Pr0x1mo 289 Jul 11, 2016 06:34 PM

can anyone tab the keys that get played in this?

guest
You may want to rate the tab now too:
select rating
Wanna post a correction for this tab? Suggest correction