Oops, an error
Loading. Please wait.

Brothers On A Hotel Bed Tab

version 1
version 1

Intro

Whole song

Interactive

58,612 views 45 this week
6 commentsread comments
1 2 3 4 5
excellent!
x 18
add to favorites
launch autoscroll
font size
0
reset
how to read this tab
guitar tuner
Tab Pro tools
  • play this tab
  • loop segment
  • change instrument
  • show fretboard
  • metronome
Autoscroll
slow
fast
+/-
esc
set tempo
stop
Contributor
Tabbed By: Joey B.
Tunning: Standard

This is originally played on a piano so it can be kinda tricky to jump up and down on
fretboard at some points. If you find any errors, please point them out to me and i will
them. Thanks.


Intro

|-----6----------3----------6----------3--3-------|
|--4----6----4-----------4----6----4----------4-6-|
|--5-----------3---5-----5-----------3----5-------|
|--5------5--------------5------5-----------------|
|---------3----6----------------3----6------------|
|--4-----------------4---4----------------4-------|


|-----6----------3---------------------3--3----------------------|
|--4----6----4-----------4--4-6----4-----------6----4----4-------|
|--5-----------3---5-----5-----------3----5----7---------5--3--5-|
|--5------5-------(5)----5------5-------------------1----------5-|
|---------3----6----------------3----6--------------2----3-------|
|--4-----------------4---4----------------4----6-----------------|


|-----6----------3----------6----------3--3--|-----|
|--4----6----4-----------4----6----4---------|-4-6-|
|--5-----------3---5-----5-----------3----5--|-----|
|--5------5--------------5------5------------|-----|
|---------3----6----------------3----6-------|-----|
|--4-----------------4---4----------------4--|-----|


Verse
|-----6----------3------|
|--4----6----4----------|
|--5-----------3---5----|
|--5------5-------------|
|---------3----6--------|
|--4-----------------4--|
You may tire of me
as our December sun is setting
'Cause I'm not who I used to be


---------------3--3-------|-----|
-4--4-6----4-----------6--|-----|
-5-----------3----5----7--|--3--|
-5------5-----------------|-----|
--------3----6------------|-----|
-4----------------4----6--|-----|
No longer easy on the eyes
These wrinkles masterfully disguise
The youthful boy below

|-----6----------3-----|--------|
|--4----6----4---------|----6-8-|
|--5-----------3---5---|--7-----|
|--5------5------------|--------|
|---------3----6-------|--------|
|--4-----------------4-|--------|
who turned your way and saw
Something he was not looking for
Both a beginning and an end

---------------3--3----------|------|
-4--4-6----4-----------6---4-|--6-8-|
-5-----------3----5----7---5-|------|
-5------5--------------------|------|
--------3----6-------------3-|------|
-4----------------4----6-----|------|
But now he lives inside someone he does not recognize
When he catches his reflection on accident


|-----6----------3-----|-------|
|--4----6----4---------|---4-6-|
|--5-----------3---5---|-5-----|
|--5------5-------(5)--|-------|
|---------3----6-------|-------|
|--4-----------------4-|-------|

Verse 2
|-----6----------3------|
|--4----6----4----------|
|--5-----------3---5----|
|--5------5-------(5)---|
|---------3----6--------|
|--4-----------------4--|
On the back of a motor bike
With your arms outstretched trying to take flight
Leaving everything behind


----6----------3--3------|------|
-4----6----4-----------6-|--8---|
-5-----------3----5----7-|------|
-5------5----------------|------|
--------3----6-----------|------|
-4----------------4----6-|------|
But even at our swiftest speed
We couldn't break from the concrete
In the city where we still reside

|-----6----------3-----|-------|
|--4----6----4---------|---6-8-|
|--5-----------3---5---|-7-----|
|--5------5-------(5)--|-------|
|---------3----6-------|-------|
|--4-----------------4-|-------|
And I have learned
That even landlocked lovers yearn
For the sea like navy men

---------------3--3------------|
-4--4-6----4-----------6-------|
-5-----------3----5----7-------|
-5------5----------------------|
--------3----6-----------------|
-4----------------4----6-------|
'Cause now we say goodnight
From our own separate sides
Like brothers on a hotel bed

-3-3-3-1---3-------------------|
---------4---------------------|
-------------------------------|
-------------------------------|
-------------------------------|  x3
-3-----------4-----------------|
Like brothers on a hotel bed


-3-3-3-1---3------------1-3----|
---------4---------1-3---------|
-------------------------------|
-------------------------------|
-------------1-----------------|
-3-----------------------------|
Like brothers on a hotel bed


Interlude
-----------3--3------------------------|
-4---3--6--------------4---4---6---4---|
-5---5--------5--------5---5---5---5---|
---------------------------------------|
-----3---------------------3---6-------|
-4------------4--------4-----------4---|

Outro
|-----6----------3------|
|--4----6----4----------|
|--5-----------3---5----|
|--5------5-------(5)---|
|---------3----6--------|
|--4-----------------4--|
You may tire of me as our december sun is setting
'Cause I'm not who I used to be
comments
print report bad tab
6 comments total. Showing first comments.
+1 reply
magos_alexos wrote on February 21 2007, 02:39 pm

Great Tab, ty vm

+1 reply
cb21990 wrote on May 26 2007, 10:28 am

Great Tab. Somewhat difficult like many piano arrangements but, accurate nonetheless.

+1 reply
MajestySnowbird wrote on February 8 2008, 04:42 pm

Hey- that's great! You don't really need to play it note-for-note to make it sound accurate. Beautiful arrangement.

I want to post or [tab]
guest
You may want to rate the tab now too:
select rating
Please do not post tabs as comments. Select "correction" instead!