Oops, an error
Loading. Please wait.

Brothers On A Hotel Bed Tab

version 2
version 2

Whole song

Interactive

6,579 views 3 this week
1 commentread comment
1 2 3 4 5
accurate
x 5
add to favorites
launch autoscroll
font size
0
reset
how to read this tab
guitar tuner
Tab Pro tools
  • play this tab
  • loop segment
  • change instrument
  • show fretboard
  • metronome
×
Best way to learn
"Brothers On A Hotel Bed"
Autoscroll
slow
fast
+/-
esc
set tempo
stop
Contributor
Capo
3rd fret
This was originally tabbed by Joey B., but I added a capo on the 3rd fret to make life 
easier. There are a few minor changes, but he deserves the credit.

Tuning: EADGBe

capo 3rd fret

Intro
|-----3----------0----------3----------0--0-------|
|-------3----1----------------3----1----------1-3-|
|--2-----------0---2-----2-----------0----2-------|
|--2------2--------------2------2-----------------|
|---------0----3----(2)---------0----3------------|
|--1-----------------1---1----------------1-------|

|-----3----------0---------------------0--0----------------------|
|-------3----1--------------1-3----1-----------3---------1-------|
|--2-----------0---2-----2-----------0----2----4----5----2--0--2-|
|--2------2--------------2------2------------------------------2-|
|---------0----3----(2)---------0----3--------------3----0-------|
|--1-----------------1---1----------------1----3----4------------|

|-----3----------0----------3----------0--0--|-----|
|-------3----1----------------3----1---------|-1-3-|
|--2-----------0---2-----2-----------0----2--|-----|
|--2------2--------------2------2------------|-----|
|---------0----3----(2)---------0----3-------|-----|
|--1-----------------1---1----------------1--|-----|

Verse
|-----3----------0------|
|-------3----1----------|
|--2-----------0---2----|
|--2------2-------------|
|---------0----3--------|
|--1-----------------1--|
You may tire of me
as our December sun is setting
'Cause I'm not who I used to be

---------------0--0-------|-----|
----1-3----1-----------3--|-----|
-2-----------0----2----4--|--0--|
-2------2-----------------|-----|
--------0----3------------|-----|
-1----------------1----3--|-----|
No longer easy on the eyes
These wrinkles masterfully disguise
The youthful boy below

|-----3----------0-----|--------|
|-------3----1---------|----3-5-|
|--2-----------0---2---|--4-----|
|--2------2------------|--------|
|---------0----3-------|--------|
|--1-----------------1-|--------|
who turned your way and saw
Something he was not looking for
Both a beginning and an end

---------------0--0----------|------|
----1-3----1-----------3---1-|--3-5-|
-2-----------0----2----4---2-|------|
-2------2--------------------|------|
--------0----3-------------0-|------|
-1----------------1----3-----|------|
But now he lives inside someone he does not recognize
When he catches his reflection on accident

|-----3----------0-----|-------|
|-------3----1---------|---1-3-|
|--2-----------0---2---|-2-----|
|--2------2------------|-------|
|---------0----3----(2)|-------|
|--1-----------------1-|-------|

Verse 2
|-----3----------0------|
|-------3----1----------|
|--2-----------0---2----|
|--2------2-------------|
|---------0----3----(2)-|
|--1-----------------1--|
On the back of a motor bike
With your arms outstretched trying to take flight
Leaving everything behind

----3----------0--0------|------|
------3----1-----------3-|--5---|
-2-----------0----2----4-|------|
-2------2----------------|------|
--------0----3-----------|------|
-1----------------1----3-|------|
But even at our swiftest speed
We couldn't break from the concrete
In the city where we still reside

|-----3----------0-----|-------|
|-------3----1---------|---3-5-|
|--2-----------0---2---|-4-----|
|--2------2------------|-------|
|---------0----3----(2)|-------|
|--1-----------------1-|-------|
And I have learned
That even landlocked lovers yearn
For the sea like navy men

---------------0--0------------|
----1-3----1-----------3-------|
-2-----------0----2----4-------|
-2------2----------------------|
--------0----3-----------------|
-1----------------1----3-------|
'Cause now we say goodnight
From our own separate sides
Like brothers on a hotel bed

-0-0-0-----0-------------------|
-------3-1---------------------|
-------------------------------|
-------------------------------|
-------------------------------|  x3
-0-----------1-----------------|
Like brothers on a hotel bed

-0-0-0-----0--------------0----|
-------3-1-----------0--3------|
-------------------3-----------|
-------------------------------|
-------------------------------|
-0-----------3-----------------|
Like brothers on a hotel bed

Interlude
-----------0--0------------------------|
-1---0--3--------------1---1---3---1---|
-2---2--------2--------2---2---2---2---|
---------------------------------------|
-----0---------------------0---3-------|
-1------------1--------1-----------1---|

Outro
|-----3----------0------|
|-------3----1----------|
|--2-----------0---2----|
|--2------2-------------|
|---------0----3----(2)-|
|--1-----------------1--|
You may tire of me as our december sun is setting
'Cause I'm not who I used to be
comments
print report bad tab
1 comment total.
+1 reply
theroguecellist wrote on February 9 2009, 11:00 pm

Good tab, it's not that much harder without the capo, but still - a good transposed version of a phenomenal song.

I want to post or [tab]
guest
You may want to rate the tab now too:
select rating
Please do not post tabs as comments. Select "correction" instead!