Oops, an error
Loading. Please wait.

Brothers On A Hotel Bed Tab

version 3
version 3

Whole song

Interactive

3,113 views 6 this week
no commentswrite comment
1 2 3 4 5
excellent!
x 7
add to favorites
launch autoscroll
font size
0
reset
how to read this tab
guitar tuner
Autoscroll
slow
fast
+/-
esc
set tempo
stop
Help us to improve Ultimate-Guitar.com Take our survey!
×
Capo
3rd fret
Brothers On A Hotel Bed by Death Cab For Cutie
tabbed by gusbotting, and credits to Joey B.

Capo 3rd fret.  

Intro

|-----3----------0----------3----------0--0-------|
|--1----3----1-----------1----3----1----------1-3-|
|--2-----------0---2-----2-----------0----2-------|
|--2------2--------------2------2-----------------|
|---------0----3----------------0----3------------|
|--1-----------------1---1----------------1-------|


|-----3----------0---------------------0--0----------------------|
|--1----3----1-----------1--1-3----1-----------3----1----1-------|
|--2-----------0---2-----2-----------0----2----4---------2--0--2-|
|--2------2-------(2)----2------2------------------------------2-|
|---------0----3----------------0----3--------------3----0-------|
|--1-----------------1---1----------------1----3----4------------|


|-----3----------0----------3----------0--0-------|
|--1----3----1-----------1----3----1----------1-3-|
|--2-----------0---2-----2-----------0----2-------|
|--2------2--------------2------2-----------------|
|---------0----3----------------0----3------------|
|--1-----------------1---1----------------1-------|


Verse
|-----3----------0-----|
|--1----3----1---------|
|--2-----------0---2---|
|--2------2------------|
|---------0----3-------|
|--1-----------------1-|
You may tire of me
as our December sun is setting
'Cause I'm not who I used to be

---------------0--0-------|-----|
-1--1-3----1-----------3--|-----|
-2-----------0----2----4--|--0--|
-2------2-----------------|-----|
--------0----3------------|-----|
-1----------------1----3--|-----|
No longer easy on the eyes
These wrinkles masterfully disguise
The youthful boy below

|-----3----------0-----|--------|
|--1----3----1---------|----3-5-|
|--2-----------0---2---|--4-----|
|--2------2------------|--------|
|---------0----3-------|--------|
|--1-----------------1-|--------|

who turned your way and saw
Something he was not looking for
Both a beginning and an end

---------------0--0----------|------|
-1--1-3----1-----------3---1-|--3-5-|
-2-----------0----2----4---2-|------|
-2------2--------------------|------|
--------0----3-------------0-|------|
-1----------------1----3-----|------|
But now he lives inside someone he does not recognize
When he catches his reflection on accident

|-----3----------0-----|-------|
|--1----3----1---------|---1-3-|
|--2-----------0---2---|-2-----|
|--2------2-------(2)--|-------|
|---------0----3-------|-------|
|--1-----------------1-|-------|

Verse 2
|-----3----------0------|
|--1----3----1----------|
|--2-----------0---2----|
|--2------2-------(2)---|
|---------0----2--------|
|--1-----------------1--|
On the back of a motor bike
With your arms outstretched trying to take flight
Leaving everything behind


----3----------0--0------|------|
-1----3----1-----------3-|--5---|
-2-----------0----2----4-|------|
-2------2----------------|------|
--------0----3-----------|------|
-1----------------1----3-|------|
But even at our swiftest speed
We couldn't break from the concrete
In the city where we still reside

|-----3----------0-----|-------|
|--1----3----1---------|---3-5-|
|--2-----------0---2---|-4-----|
|--2------2-------(2)--|-------|
|---------0----3-------|-------|
|--1-----------------1-|-------|
And I have learned
That even landlocked lovers yearn
For the sea like navy men

---------------0--0------------|
-1--1-3----1-----------3-------|
-2-----------0----2----4-------|
-2------2----------------------|
--------0----3-----------------|
-1----------------1----3-------|
'Cause now we say goodnight
From our own separate sides
Like brothers on a hotel bed


-------------------------------|
-5-5-5-3-/-1-/-5---------------|
-------------------------------|
-------------------------------|
-------------------------------|  x3
-0-----------------1-----------|
Like brothers on a hotel bed


----------------------------------|
-5-5-5---3-1/5-------------3-5----|
----------------------2-4---------|
----------------------------------|
----------------------------------|
-0-------------3------------------|
Like brothers on a hotel bed

Interlude
-----------0--0------------------------|
-1---0--3--------------1---1---3---1---|
-2---2--------2--------2---2---2---2---|
---------------------------------------|
-----0---------------------0---3-------|
-1------------1--------1-----------1---|

Outro
|-----3----------0------|
|--1----3----1----------|
|--2-----------0---2----|
|--2------2-------(2)---|
|---------0----3--------|
|--1-----------------1--|
You may tire of me as our december sun is setting
'Cause I'm not who I used to be

The End.  Please rate and comment.
Suggest correction
comments
print report bad tab
guest
You may want to rate the tab now too:
select rating
Wanna post a correction for this tab? Suggest correction