Oops, an error
Loading. Please wait.

Brothers On A Hotel Bed Tab

version 4
version 4

Whole song

Interactive

523 views 1 this week
1 commentread comment
1 2 3 4 5
please rate
add to favorites
launch autoscroll
font size
0
reset
how to read this tab
guitar tuner
Autoscroll
slow
fast
+/-
esc
set tempo
stop
Help us to improve Ultimate-Guitar.com Take our survey!
×
Author
i relied on some other tabs but made it easier to play.capo on third fret.  all 
notes related to capo. 

|-----3----------0----------3----------0--0-------|
|--1----3----1-----------1----3---3----------1-3--|
|--2-----------0---2-----2-----------0----2-------|
|--2------2--------------2------2-----------------|
|---------0----3----------------0----3------------|
|--1-----------------1---1----------------1-------|


|-----3----------0---------------------0--0----------------------|
|--1---3----1-----------1--1-3----1-----------3----1----1--------|
|--2-----------0---2-----2-----------0----2----4------------0--2-|
|--2------2-------(2)----2------2------------------------4-----2-|
|---------0----3----------------0----3--------------3----2-------|
|--1-----------------1---1----------------1----3----4------------|


|-----3----------0----------3----------0--0-------|----|
|--1----3----1-----------1----3---3----------1-3--|-2-3|
|--2-----------0---2-----2-----------0----2-------|----|
|--2------2--------------2------2-----------------|----|
|---------0----3----------------0----3------------|----|
|--1-----------------1---1----------------1-------|----|



Verse
|-----3----------0------|
|--1----3----1----------|
|--2-----------0---2----|
|--2------2-------------|
|---------0----3--------|
|--1-----------------1--|
You may tire of me
as our December sun is setting
'Cause I'm not who I used to be


---------------0--0-------|-----|
-1--1-3----1-----------3--|-----|
-2-----------0----2----4--|--0--|
-2------2-----------------|-----|
--------0----3------------|-----|
-1----------------1----3--|-----|
No longer easy on the eyes
These wrinkles masterfully disguise
The youthful boy below

|-----3----------0-----|--------|
|--1----3----1---------|----3-5-|
|--2-----------0---2---|--4-----|
|--2------2------------|--------|
|---------0----3-------|--------|
|--1-----------------1-|--------|
who turned your way and saw
Something he was not looking for
Both a beginning and an end

---------------0--0----------|------|
-1--1-3----1-----------3---1-|--3-5-|
-2-----------0----2----4---2-|------|
-2------2--------------------|------|
--------0----3-------------0-|------|
-1----------------1----3-----|------|
But now he lives inside someone he does not recognize
When he catches his reflection on accident


|-----3----------0-----|-------|
|--1----3----1---------|---1-3-|
|--2-----------0---2---|-2-----|
|--2------2-------(2)--|-------|
|---------0----3-------|-------|
|--1-----------------1-|-------|

Verse 2
|-----3----------0------|
|--1----3----1----------|
|--2-----------0---2----|
|--2------2-------(2)---|
|---------0----3--------|
|--1-----------------1--|
On the back of a motor bike
With your arms outstretched trying to take flight
Leaving everything behind


----3----------0--0------|------|
-1----3----1-----------3-|--5---|
-2-----------0----2----4-|------|
-2------2----------------|------|
--------0----3-----------|------|
-1----------------1----3-|------|
But even at our swiftest speed
We couldn't break from the concrete
In the city where we still reside

|-----3----------0-----|-------|
|--1----3----1---------|---3-5-|
|--2-----------0---2---|-4-----|
|--2------2-------(2)--|-------|
|---------0----3-------|-------|
|--1-----------------1-|-------|
And I have learned
That even landlocked lovers yearn
For the sea like navy men

---------------0--0------------|
-1--1-3----1-----------3-------|
-2-----------0----2----4-------|
-1------2----------------------|
--------0----3-----------------|
-1----------------1----3-------|
'Cause now we say goodnight
From our own separate sides
Like brothers on a hotel bed

-0-0-0-----0-------------------|
-------3-4---------------------|
-------------------------------|
-------------------------------|
-------------------------------|  x3
-0-----------1-----------------|
Like brothers on a hotel bed


-0-0-0-----0--------------0----|
-------3-4------------0-3------|
--------------------2----------|
-------------------------------|
-------------3-----------------|
-0-----------------------------|
Like brothers on a hotel bed


Interlude
-----------0--0------------------------|
-1---0--3--------------1---1---3---1---|
-2---2--------2--------2---2---2---2---|
---------------------------------------|
-----0---------------------0---3-------|
-1------------1--------1-----------1---|

Outro
|-----3----------0------|
|--1----0----1----------|
|--2-----------0---2----|
|--2------2-------(2)---|
|---------0----3--------|
|--1-----------------1--|
Suggest correction new What's this?
You can suggest a correction to this tab. Community and Mods will review your correction and vote to approve or reject it.
comments
We did not receive enough feedback on this tab! Please rate:
print report bad tab
1 2 3 4 5
1 comment total.
+2 reply
thebends2554 38 wrote on April 18 2011, 10:02 am

This is "brothers on a hotel bed" not "what sarah said." Two different songs champ

guest
You may want to rate the tab now too:
select rating
Please do not post tabs as comments. Select "correction" instead!