Oops, an error
Loading. Please wait.

Brothers On A Hotel Bed Tab

version 5
version 5

Whole song

Interactive

145 views 1 this week
no commentswrite comment
1 2 3 4 5
3 more votes to show rating
add to favorites
launch autoscroll
font size
0
reset
how to read this tab
guitar tuner
Autoscroll
slow
fast
+/-
esc
set tempo
stop
Help us to improve Ultimate-Guitar.com Take our survey!
×
Author
Difficulty
Capo
novice
3rd fret
Death Cab For Cutie
Brothers on a Hotel Bed
Capo 3
Standard Tuning

Let me know if you like it.

(Not relative to capo)

e|----x------6------3----------3-------x-------------------------------------|
B|---x-------6-6----4----4-------------x-------------------------------------|
G|---5-------7------5--------3---------5-------------------------------------|
D|---6-------8------5------------------6-------------------------------------|
A|---6-------8------3------------------6-------------------------------------|
E|---4-------6-------------------------4-------------------------------------|

e|---x---------------3-----------3------------------3----------------------|
B|---x------4--6-----4---4--------------------------4------------0---------|
G|---5---------------5--------5---------7-----8-----5-----7----------------|
D|---6---------------5------------------8-----9-----5-----8----------------|
A|---6---------------3------------------8-----9-----3-----8----------------|
E|---4----------------------------------6-----7-----------6----------------|

Relative to capo 3

Chords used

      F.       C.       Am.      G.
e|----0--------0--------0--------3-------------------------------------------|
B|----1--------1--------1--------3-------------------------------------------|
G|----2--------0--------2--------0-------------------------------------------|
D|----3--------2--------2--------0-------------------------------------------|
A|----3--------3--------0--------2-------------------------------------------|
E|----x--------------------------3-------------------------------------------|

Verse start
F,C,F,C

Verse
F
You may tire of me
Am.              C.                         F
As our december sun is setting
F.                               Am. C.
Cause I'm not who I used to be.

F
No Longer easy on the eyes
Am.                         C.                  F
But these wrinkles masterfully disguise
F.                    G.
The youthful boy below

Repeat same pattern through the whole song.

Ending

FFF,CCC,F....
FFF,Am, G....
Suggest correction
Give kudos to tab author, rate the tab!
1 2 3 4 5
comments
print report bad tab
guest
You may want to rate the tab now too:
select rating
Wanna post a correction for this tab? Suggest correction