Oops, an error
Loading. Please wait.

Cath Bass Tab

version 1
version 1

Whole song

Interactive

8,526 views 3 this week
no commentswrite comment
1 2 3 4 5
x 4
add to favorites
launch autoscroll
font size
0
reset
guitar tuner
Autoscroll
slow
fast
+/-
esc
set tempo
stop
Help us to improve Ultimate-Guitar.com Take our survey!
×
Author
Difficulty
Capo
novice
2nd fret
-------------------------------------------------------------------------------
			     Cath - Death Cab For Cutie
-------------------------------------------------------------------------------

Tabbed By : Kevin Reed
e-mail: kevin.12389@gmail.com

Tuning: E Standard

For use of capo 2 fret on the guitar....

(Electric Guitar Intro)

Then

G-------------------------------|
D-------------------------------|
A-9---7---6---14----------------|
E-------------------------------|

Verse 1

G--------6-6--------------------|
D-------------0--2--2-----------|
A-5--4-----------------4-----4--|
E-------------------------5-----|

Chorus 1

G------------------------------------------|
D------------------------------------------|
A-9---7---6---14-----4-5-7------4-5-7------|
E---------------------------5----------5---|

Verse 2

G--------6-6--------------------|
D-------------0--2--2-----------|
A-5--4-----------------4-----4--|
E-------------------------5-----|

Bridge?

G-------------------------------|
D---7--7--7--7-etc--------------|
A-------------------------------|
E-------------------------------|

Last Chorus (Important All Is Included)

G------------------------------------------|
D------------------------------------------|
A-9---7---6---14-----4-5-7------4-5-7------|
E---------------------------5----------5---|

G------------------------------------------|
D------------------------------------------|
A-9---7---6---14-----4-5-7------4-5-7------|
E---------------------------5----------5---|

G-------------------------------|
D-------------------------------|
A-9---7---6-------5---4---2-----|
E-------------------------------|

G-------------------------------------------------------------------------|
D------------------------------------------------------4------------------|
A-9---7---6---14-----4-5-7------4-5-7-------4-5-7--------7-5-4-5-4--------|
E---------------------------5----------5-----------5----------------7-5---|


G-------------------------------|
D-------------------------------|
A-9---7---6---------------------|
E-------------------------------|

| /  slide up
| \  slide down
| h  hammer-on
| p  pull-off
| ~  vibrato
| +  harmonic
| x  Mute note
===============================================================================
Suggest correction
comments
print report bad tab
guest
You may want to rate the tab now too:
select rating
Wanna post a correction for this tab? Suggest correction