Oops, an error
Loading. Please wait.

Cath Bass Tab

version 2
version 2

Whole song

Interactive

10,973 views 6 this week
3 commentsread comments
1 2 3 4 5
x 5
add to favorites
launch autoscroll
font size
0
reset
guitar tuner
Autoscroll
slow
fast
+/-
esc
set tempo
stop
Help us to improve Ultimate-Guitar.com Take our survey!
×
Author
Difficulty
intermediate
Tabbed By : Andy
e-mail: swans150@msu.edu

Tuning: EADG

Guitar intro until 0:17

Intro:

0:18-0:23   14= fourteenth fret, not 1-4
G|------------------------|
D|------------------------|
A|9999-777-6666/14141414--|
E|------------------------|

Verse

0:24-1:21   11= eleventh fret, not 1-1
G|-----------------------------------------------|   x6, on the sixth repeat,
D|----7---1111----------------7---1111-----------|   don't play the bracketed
A|7777-0-------454-------[7777-0-------454-7/9]--|   section.
E ----------------5-----------------------5------|  

Chorus

1:21-1:44   14= fourteenth fret, not 1-4. 12= twelfth fret, not 1-2
G|---------------------------------------|     x2
D|---------------------------------------|
A|9999-777-6666/14141414-457-7/12\457----|
E|--------------------------5--------5---|

Verse

1:45-2:19   11= eleventh fret, not 1-1
G|------------------------------------------|    x3
D|----7---1111-----------7---1111-----------|
A|7777-0-------454---7777-0-------454-975---|
E|----------------5------------------5---5--|

Bridge:

2:20-2:41
G|----------|      x8, crescendo on the last repeat
D|222/7777--|
A|----------|
E|----------|

Chorus

2:42-3:05
G|------------------------------------|      x2
D|------------------------------------|
A|9999-777-6666/141414-457-7/12-457---|
E|------------------------5--------5--|

Variation on Chorus

3:06-3:17
G|---------------------------------------------|
D|---------------------------------------------|
A|9999-777-66666666-55554444-1414141414141414--|
E|---------------------------------------------|

Chorus

3:18-end
G|----------------------------------------------------------------|
D|----------------------------------------------------------------|
A|9999-777-6666/141414-457-7/12-457--457---7/9\75454----9999-777-6|
E|------------------------5--------5----5-----------75------------|


| /  slide up
| \  slide down
| h  hammer-on
| p  pull-off
| ~  vibrato
| +  harmonic
| x  Mute note
===============================================================================
Suggest correction
comments
print report bad tab
3 comments total.
0 reply
guitarboy48 486 Feb 27, 2009 10:13 PM

the verse is all wrong

0 reply
SaintChris 123 Apr 26, 2009 01:45 PM

yeah... I'm not positive of the correct way, but i think it should sound more like this:

G|----------------------------------9-11/14-16--14-| x3
D|----7---9-11\-----------7---9-11\----------------|
A|7777-0--------454---7777-0-----------------------|
E|-----------------5-------------------------------|

0 reply
pjsstrong 10 Nov 15, 2009 05:25 PM

This way sounds right to me

G|-------------------------------------|
D|--5-7---9-11\----------5-7---9-11\---|
A|77-----------454-----77--------------|
E|-----5-----------5-55-----5----------|

guest
You may want to rate the tab now too:
select rating
Wanna post a correction for this tab? Suggest correction