Oops, an error
Loading. Please wait.

Cath Tab

version 2
version 2

Whole song

Interactive

43,885 views 3 this week
9 commentsread comments
1 2 3 4 5
x 7
add to favorites
launch autoscroll
font size
0
reset
how to read this tab
guitar tuner
Autoscroll
slow
fast
+/-
esc
set tempo
stop
Help us to improve Ultimate-Guitar.com Take our survey!
×
Capo
2nd fret
I'm not that great at tabbing, but this is 100% correct. It's based off of the acoustic 
played at BBC6, which is the most recent version. I have the chords here, it's up to you 
get the rhythm (which isn't too hard).

Artist: Death Cab for Cutie
Track: Cath...
Album: Narrow Stairs

-Standard tuning
-Capo 2

/ - slide
p – pull off
h – hammer on

Intro riff/Interlude
E-------------------------------------------------------------|
B-0-/0-0-0-------------------------------------0—3—0----------|
G-2-/4-4-4-p0-----------------0----------------0—0—0----------|
D---------------------0-h2-h4------------------0—0—0----------|
A-------------------3--------------------------2—2—2----------|
E----------------------------------------------3—3—3----------|

Intro riff variation
E--------------------------------|
B-0-/0-0-0-----------------------|
G-2-/4-4-4-h5-p4-p0--------------|
D--------------------------------|
A--------------------------------|
E--------------------------------|

Chorus
E----------------|
B-7—5—2----------|
G-0—0—0----------|
D-0—0—0----------|
A-9—7—4----------|
E----------------|

Chorus variation
E-----------------|
B-3—3—2-----------|
G-0—0—2-----------|
D-2—0—2-----------|
A-3—2—0-----------|
E-----------------|

Verse
E------------------------|
B------------------------|
G-9—4----7—2-------------|
D-0—0----0—0-------------|
A-7—2----7—2-------------|
E-8—3----8—3-------------|

End with Chorus
Suggest correction
comments
print report bad tab
9 comments total. Showing first comments.
+4 reply
drewsta42 182 Apr 29, 2008 01:25 PM

Mostly correct here, except for a notation error. I think the chorus chords are the same form you have, except you've written them as they appear on the fretboard instead of relative to the capo. Should be like this:


e------
B-5-3-2
G-0-0-0
D-0-0-0
A-7-5-4
E------


I'm pretty sure the verse chords are right, though. Good work, thanks for doing this!

+2 reply
Heavok 72 May 03, 2008 09:38 AM

Jepp, drew's correction should be right, but I've got another one.

Isn't it mainly:

E-00000---0--0-00-0----------------|
B-77777---0--2-22-2----------------|
G-00000—--0--0—00-0----------------|
D-00000—--0--0—00-0----------------|
A-99999—--2--2—22-2----------------|
E-—----—--3--3-33-3----------------|

in the verse?

Mfg, heav

-2 reply
willsfarm 10 May 07, 2008 01:22 PM

Can someone post the guitar tab for Spring Break Broke. That song is crazy good.

guest
You may want to rate the tab now too:
select rating
Wanna post a correction for this tab? Suggest correction