Oops, an error
Loading. Please wait.

Cath Bass Tab

version 3
version 3

Whole song

Interactive

1,861 views 12 this week
1 commentread comment
1 2 3 4 5
excellent!
x 1
add to favorites
launch autoscroll
font size
0
reset
guitar tuner
Tab Pro tools
  • play this tab
  • loop segment
  • change instrument
  • show fretboard
  • metronome
×
Best way to learn
"Cath"
Autoscroll
slow
fast
+/-
esc
set tempo
stop
Contributor
-----------------------------------------------------------------------------
			     CATH - Death Cab For Cutie
-----------------------------------------------------------------------------

Tabbed By : junky_man
e-mail: junky_man@yahoo.com

Tuning: Standard EADG

I believe this is 97% correct. Probably some timing and little nuances I can't properly 
at the moment but I can guarantee that this is most accurate bass interpretation for 
out there. Please rate!


Intro
Start at 0:18
G|---------------------------------------------------------------|
D|--------------------6/9~~--------------------------------------|
A|---9999----7776~-66--------------------------------------------|
E|---------------------------------------------------------------|

G|----------------------------------------------9-11-14-------------|
D|-----5h7--9-11~-----------7~----5h7--9-11~-----------11~12-14-----|
A|---55---00-------5/7\5-0~-----55---00-----------------------------|
E|------------------------------------------------------------------|


Verse 1

G|----------------------------------------------9-11-14-------------|
D|-----5h7--9-11~-----------7~----5h7--9-11~-----------11~12-14-----| x3times
A|---55---00-------5/7\5-0~-----55---00-----------------------------|
E|------------------------------------------------------------------|

G|----------------------------------------------9-11-14-------------|
D|-----5h7--9-11~-----------7~----5h7--9-11~-----------11~-9--7-----|
A|---55---00-------5/7\5-0~-----55---00-----------------------------|
E|------------------------------------------------------------------|


Chorus
G|------------------------------------------------------------------|
D|---------------6/9~~------5h7--9-11----------7--------------------|x2times
A|---99~~77~~66~~---------55---0~------5/7\5-0~---------------------|
E|------------------------------------------------------------------|


Pre-verse 2
G|------------------------------------------------18-14----------------|
D|-----5h7--9-11~-----------7~----5h7--9-11~----14-----16-14-12-11-9-7-|
A|---55---00-------5/7\5-0~-----55---00--------------------------------|
E|---------------------------------------------------------------------|


Verse 2
G|----------------------------------------------9-11-14-------------|
D|-----5h7--9-11~-----------7~----5h7--9-11~-----------11~12-14-----|
A|---55---00-------5/7\5-0~-----55---00-----------------------------|
E|------------------------------------------------------------------|

G|----------------------------------------------9-11-14-------------|
D|-----5h7--9-11~-----------7~----5h7--9-11~-----------11~-9--7-----|
A|---55---00-------5/7\5-0~-----55---00-----------------------------|
E|------------------------------------------------------------------|


G|---------------------------------------------------------------|
D|---------------------------------------------------------------|
A|---5-5-5-5/12-12-12-12-----------------------------------------| x 8 times
E|---------------------------------------------------------------|


Chorus
G|------------------------------------------------------------------|
D|---------------6/9~~------5h7--9-11----------7--------------------|x2times
A|---99~~77~~66~~---------55---0~------5/7\5-0~---------------------|
E|------------------------------------------------------------------|


Outro
G|-------------------------------------------------------------------|
D|------------------------6/9~~----------------6/9~~-----------------|
A|---99~~77~6~66~~55~~44~~---------99~~77~~66~~----------------------|
E|-------------------------------------------------------------------|

G|------------------------------------------------18-14----------------|
D|-----5h7--9-11~-----------7~----5h7--9-11~----14-----16-14-12-11-9-7-|
A|---55---00-------5/7\5-0~-----55---00--------------------------------|
E|---------------------------------------------------------------------|

G|-------------------------------------------|
D|-------------------------------------------|
A|---9999-7777-6~~---------------------------|
E|-------------------------------------------|

| /  slide up
| \  slide down
| h  hammer-on
| p  pull-off
| ~  vibrato
| +  harmonic
| x  Mute note
=============================================================================
comments
We did not receive enough feedback on this tab! Please rate:
print report bad tab
1 2 3 4 5
1 comment total.
0 reply
mattedbird wrote on December 19 2015, 06:48 pm

Nice work. Great bass line.

I want to post or [tab]
guest
You may want to rate the tab now too:
select rating
Please do not post tabs as comments. Select "correction" instead!