Oops, an error
Loading. Please wait.

Cath Bass Tab

version 4
version 4

Whole song

Interactive

7,499 views 24 this week
2 commentsread comments
1 2 3 4 5
accurate
x 8
add to favorites
launch autoscroll
font size
0
reset
guitar tuner
Tab Pro tools
  • play this tab
  • loop segment
  • change instrument
  • show fretboard
  • metronome
×
Best way to learn
"Cath"
Autoscroll
slow
fast
+/-
esc
set tempo
stop
Difficulty
intermediate
Tabbed Mikell
Email: Mikellcook@hotmail.co.uk

Standard Tuning 

Intro
0:18-0:23
G|-----------------------------------------| 
D|-----------------------------------------| 
A|----9999-777-6-6666-/14141414\-----------| 
E|-----------------------------------------|  

Verse 1
0:24-1:21
G|-----------------------------------------| 
D|--------5h7--7-9-11\---------------------| 
A|----5-55-------------454-----7-----------| 
E|-----------5-------------5--5------------|  

G|--------------------9-11-14--------------| 
D|--------5h7--7-9-11---------11--12-14\---| 
A|----5-55---------------------------------| 
E|-----------5-----------------------------|  

Repeat this five times.

Chorus 1
1:22-1:44
G|-----------------------------------------| 
D|-----------------------------------------| 
A|----9999-7777-6666-/14141414\------------| 
E|-----------------------------------------|  

G|-----------------------------------------| 
D|--------5h7---9-11\----------------------| 
A|----5-5-------------457-----7------------| 
E|-----------5------------5--5-------------|  

Repeat this two times.

Bridge 1
1:45-1:55
G|-----------------------------------------| 
D|--------5h7--7-9-11\---------------------| 
A|----5-55-------------454-----7-----------| 
E|-----------5-------------5--5------------|  

G|--------------------9-11-14--------------| 
D|--------5h7--7-9-11---------14-12-11-9-7-| 
A|----5-55---------------------------------| 
E|-----------5-----------------------------|  


Verse 2 
1:56-2:19
G|-----------------------------------------| 
D|--------5h7--7-9-11\---------------------| 
A|----5-55-------------454------7----------| 
E|-----------5-------------5---------------|  

G|--------------------9-11-14--------------| 
D|--------5h7--7-9-11---------11---9-------| 
A|----5-55---------------------------------| 
E|-----------5-----------------------------|  

Repeat this two times.


Bridge 2
2:20-2:43
G|-----------------------------------------| 
D|-----------------------------------------| 
A|---555/12121212--------------------------| 
E|-----------------------------------------|  

Repeat this eight times. 

Chorus 2
2:44-3:06
G|-----------------------------------------| 
D|-----------------------------------------| 
A|----9999-7777-6666-/14141414\------------| 
E|-----------------------------------------|  

G|-----------------------------------------| 
D|--------5h7---9-11\----------------------| 
A|----5-5-------------457-----7------------| 
E|-----------5------------5--5-------------|  

Repeat this two times.

3:07-3:17
G|----------------------------------------------------------| 
D|----------------------------------------------------------| 
A|9999-777-6-66666666-55554444/-14-14-1414-1414-1414-1414\--| 
E|----------------------------------------------------------| 

Outro
3:18-3:49(end)
G|-----------------------------------------| 
D|-----------------------------------------| 
A|----9999-7777-6666-/14141414\------------| 
E|-----------------------------------------|  

G|-----------------------------------------| 
D|--------5h7---9-11\----------------------| 
A|----5-5-------------457-----7------------| 
E|-----------5------------5--5-------------|  

G|-----------------------------------------| 
D|-----------------------------------------| 
A|----9999-7777-6666-/14141414\------------| 
E|-----------------------------------------|  

G|-----------------------------------------| 
D|--------5h7---9-11-----------------------| 
A|----5-5------------9-11-14-9-7-6-4-2-----| 
E|-----------5-----------------------------|  

G|-----------------------------------------| 
D|-----------------------------------------| 
A|----9999-7777-6--------------------------| 
E|-----------------------------------------| 

Hold the last note till the end of the song. 

This is how i play it. This is my first tab so comments are welcome.
comments
print report bad tab
2 comments total.
-1 reply
anameofsomesort wrote on January 27 2012, 07:01 pm

heya, this is a great attempt of a tab but i think some parts are wrong.

firstly the main riff where youve put

Verse 1
0:24-1:21
G|-----------------------------------------|
D|--------5h7--7-9-11\---------------------|
A|----5-55-------------454-----7-----------|
E|-----------5-------------5--5------------|

i am pretty sure it goes

G|-----------------------------------------|
D|--------5h7----9-11\-------------7-------|
A|----5-55-------------5-7-4---------------|
E|-----------5-5-------------7---5---------|

And after the second chorus (i think) and the outro i am pretty certain he makes this fill

G|----------------------18-----------------------|
D|--------5h7----9-11------19-16-19--------------|
A|----5-5---------------------------17-16-14-12--|
E|-----------5-5---------------------------------|

rather then the fills youve suggested.

0 reply
anameofsomesort wrote on January 27 2012, 07:05 pm

no i ment first chorus haha

I want to post or [tab]
guest
You may want to rate the tab now too:
select rating
Please do not post tabs as comments. Select "correction" instead!