Oops, an error
Loading. Please wait.

Coney Island Tab

version 1
version 1

Acoustic

Whole song

3,230 views 3 this week
no commentswrite comment
1 2 3 4 5
accurate
x 3
add to favorites
launch autoscroll
font size
0
reset
how to read this tab
guitar tuner
Autoscroll
slow
fast
+/-
esc
set tempo
stop
Help us to improve Ultimate-Guitar.com Take our survey!
×
Author
Difficulty
axiom 106
novice
=-=-=-=-=-=-=-=-=-=-=-=-=-=-=-=-=-=-=-=-=-=-=-=-=-=-=-=-=-=-=-=-=
            Coney Island Acoustic - Death Cab for Cutie
=-=-=-=-=-=-=-=-=-=-=-=-=-=-=-=-=-=-=-=-=-=-=-=-=-=-=-=-=-=-=-=-=
Tabbed by: J. Elliott
Email: saojim09@yahoo.com

Track 9 on "The Photo Album", another very simple yet great song 
by Deathcab.

Tuning: standard


CHORDS:

    G     Em    C
e|--3--|--0--|--0--|
B|--0--|--0--|--1--|
G|--0--|--0--|--0--|
D|--0--|--2--|--2--|
A|--2--|--2--|--3--|
E|--3--|--0--|--x--|**

CHORD ALTERNATIONS:

      C(alt) [figure out the rythem, it isn't hard]
e|--0----0----0--|
B|--1----0----3--|
G|--0----0----0--|
D|--2----2----2--|
A|--3----3----3--|
E|--x----x----x--|**


Alright, now for the song. When it says C(alt) play the three 
chord alterations listed above. Have Fun :)


 -Intro-

e|---3---3----------------|
B|--0---0---0--1---0---3--|
G|-0---0---0--------------|
D|--------------2---2---2-|
A|---------------3---3----|
E|------------------------|

  G           C(alt)
Sitting on a carousel ride 
  G           C(alt)
without any music or light.

  Em             G              C
Everything was closed at coney island
  Em             G             C
and i could not help from smiling

  G              C(alt)
I can hear the atlantic echo back 
  G              C(alt)
roller coaster screams from summers past.
                  
   Em               G               C
And everything was closed at coney island
   Em               G         C
and i could not help from smiling.
   Em               G                  C
Brooklyn will fill in the beach eventually 
   Em         G         C
everyone will go except me.


**x=mute

+=+=+=+=+=+=+=+=+=+=+=+=+=+=+=+=+=+=+=+=+=+=+=+=+=+=+=+=+=+=+=+=+
Suggest correction new What's this?
You can suggest a correction to this tab. Community and Mods will review your correction and vote to approve or reject it.
comments
We did not receive enough feedback on this tab! Please rate:
print report bad tab
1 2 3 4 5
guest
You may want to rate the tab now too:
select rating
Please do not post tabs as comments. Select "correction" instead!