Oops, an error
Loading. Please wait.

Coney Island Bass Tab

379 views 1 this week
no commentswrite comment
1 2 3 4 5
please rate
add to favorites
launch autoscroll
font size
0
reset
guitar tuner
Autoscroll
slow
fast
+/-
esc
set tempo
stop
Help us to improve Ultimate-Guitar.com Take our survey!
×
Difficulty
novice
standard tuning

0:21 into verse 1
G| ----------------------------------------------------|
D| ----------------------------------------------------|
A| ----------------------------------------------------|
E| 3---/--15-----888/121212-1010--\3-------------------| x5

(those are 12's and 10's ^^^^)

Chorus (0:55)

"Everything was closed on Coney Island...."
G|----------------------------------------------------|
D|----------------------------------------------------|
A|----------------------------------------------------|
E|--000---2-3--/88888---------------------------------| x2

Verse 2 (1:12) "I can hear the Atlantic echo back"

G|---------------------------------------------------|
D|---------------------------------------------------|
A|---------------------------------------------------|
E| 3---/---15----888/121212-1010---\3----------------| x4


Chorus (1:39) [Extended, with extra two lines]

G|---------------------------------------------------|
D|---------------------------------------------------|
A|---------------------------------------------------|
E|--000----2-3--/88888-------------------------------| x4

Fade out, rest at 2:10

Suggest correction
Give kudos to tab author, rate the tab!
1 2 3 4 5
comments
print report bad tab
guest
You may want to rate the tab now too:
select rating
Please do not post tabs as comments. Select "correction" instead!