Oops, an error
Loading. Please wait.

Coney Island Tab

version 1
version 1

Intro

Whole song

1,833 views 1 this week
2 commentsread comments
1 2 3 4 5
accurate
x 5
add to favorites
launch autoscroll
font size
0
reset
how to read this tab
guitar tuner
Tab Pro tools
  • play this tab
  • loop segment
  • change instrument
  • show fretboard
  • metronome
×
Best way to learn
"Coney Island"
Autoscroll
slow
fast
+/-
esc
set tempo
stop
i think i have most of it right but its just a try so go for it....

E------3-----3---------------------------------------------|
B----0-----0-----0---1----------0----------0---------------|
G--0-----0-----0----------2---------2----------2-----------|
D----------------------------3---------3-------------------|
A----------------------------------------------------------|
E----------------------------------------------------------|

    Just keep repeating this through the song
comments
print report bad tab
2 comments total.
0 reply
AceMoney wrote on July 17 2006, 06:13 pm

That sounds perfect for the intro and verse and the other person's tab is good for the chorus...nice job on this one

0 reply
davedc wrote on February 10 2007, 05:32 am

E------3-----3---------------------------------------------|
B----0-----0-----0---1----------0----------0---------------|
G--0-----0-----0----------2---------2----------2-----------|
D----------------------------3---------3-------------------|
A----------------------------------------------------------|
E----------------------------------------------------------|

is what was originally posted.. i think this sounds much more like the real version

E------3-----3---------------------------------------------|
B----0-----0-----0---1----------0----------0---------------|
G--0-----0-----0-------------------------------------------|
D-------------------------2---------2----------2-----------|
A----------------------------3---------3-------------------|
E----------------------------------------------------------|

I want to post or [tab]
guest
You may want to rate the tab now too:
select rating
Please do not post tabs as comments. Select "correction" instead!