Oops, an error
Loading. Please wait.

Crooked Teeth Tab

version 1
version 1

Solo

Whole song

Interactive

2,183 views 3 this week
1 commentread comment
1 2 3 4 5
3 more votes to show rating
add to favorites
launch autoscroll
font size
0
reset
how to read this tab
guitar tuner
Autoscroll
slow
fast
+/-
esc
set tempo
stop
Help us to improve Ultimate-Guitar.com Take our survey!
×
Author
Difficulty
Capo
novice
1st fret
Artist: Death Cab For Cutie
Song: Crooked Teeth (Solos)
Album: Plans
Tuning: Standard (Capo 1st fret)

Bass Line:

e |----------------------------------------------|
B |----------------------------------------------|
G |----------------------------------------------|
D |----------------------------------------------|
A |-------------------------------------0--0--0--|      
E |-1--1--5--4--1--1--3--4---0--0--0--5----------|

e |----------------------------------------------|
B |----------------------------------------------|
G |----------------------------------------------|
D |----------------------------------------------|
A |-------------------7--5--6--6-----------------|      
E |--1--1--7--5--6--6-------------1--3--4--4--4--|

After Bridge Guitar Solo:

e |------------------------------------------|
B |------------------------------------------|
G |--7p6—7p6—7--5--8--8--10--6--6--6--5--5---|
D |------------------------------------------|
A |------------------------------------------|  
E |------------------------------------------|

e |------------------------------------------------------------|
B |--6--6--9--9--9--13—13--13--13--13--16--16--16--16--16--16--|
G |------------------------------------------------------------|
D |------------------------------------------------------------|
A |------------------------------------------------------------|        
E |------------------------------------------------------------|
Suggest correction
Give kudos to tab author, rate the tab!
1 2 3 4 5
comments
print report bad tab
1 comment total.
0 reply
yankeesamuel 10 Aug 17, 2015 09:15 PM

didn't like this contribution

guest
You may want to rate the tab now too:
select rating
Wanna post a correction for this tab? Suggest correction