Oops, an error
Loading. Please wait.

Crooked Teeth Bass Tab

version 2
version 2

Whole song

Interactive

7,985 views 12 this week
no commentswrite comment
1 2 3 4 5
excellent!
x 3
add to favorites
launch autoscroll
font size
0
reset
guitar tuner
Autoscroll
slow
fast
+/-
esc
set tempo
stop
Help us to improve Ultimate-Guitar.com Take our survey!
×
Author
Tabbed By : jaronthebassist

                              Crooked Teeth                                


                                                        Death Cab For Cutie
Bass



G||-------|-------|-------|-------|-------|-------|-------|-------|
D||-------|-------|-------|-------|-------|-------|-------|-------|
A||-------|-------|-------|-------|-------|-------|-------|-------|
E||-------|-------|-------|-------|-------|-------|-------|-------|


    E  E  E  E  Q    Q        E  E  E  E  E  E  E  E   4x
|--------------------------|---------------------------||
|*-------------------9\----|--L-----------------------*||
|*-------------------------|-----5--5--4--------------*||
|---2-----2--5--7----------|--------------5--5--4--3---||


  E  E  E  E  E  E  Q       Q    E  E  Q    E  E   
-------------------------|-------2----------4-----|
--L----------------------|--4-------4--3-------3--|
-----5--5--4-------------|------------------------|
--------------5-----5----|------------------------|


  Q    E  E  Q    E  E     Q    E  E  Q    E  E   
-------6----------6-----|-------2----------4-----|
------------------------|--4-------4--3-------3--|
--7-------7--4-------4--|------------------------|
------------------------|------------------------|


  Q    E  E  E  E  E  E     E  E  E  E  E  E  E  E   
-------6-----------------|--------------------------|
-------------------------|--------7-----------------|
--7-------7--------------|--5--5-----5--------7-----|
-------------7--7--7--7--|--------------5--5-----5--|


  E  E  E  E  E  E  E  E     E  E  E  E  E  E  E  E   
--------------------------|--------------------------|
--------------------7-----|--------------------------|
--------2-----5--5-----5--|--------7-----------2-----|
--0--0-----0--------------|--5--5-----5--0--0-----0--|


  E  E  E  E  E  E  E  E     E  E  E  E  E  E  E  E   
--------------------------|--------------------------|
--------7-----------------|--------------------7-----|
--5--5-----5--------7-----|--------2-----5--5-----5--|
--------------5--5-----5--|--0--0-----0--------------|


  E  E  E  E  E  E  E  E     E  E  E  E     E  E  E  E  E  E  E  E   
--------------------------|--------------|--------2--4--------------|
--------------------------|--------------|--4--4--------------4--3--|
--------7-----------------|--------------|--------------2--2--------|
--5--5-----5--0--0--0--0--|--0--0--0-----|--------------------------|


  E  E  E  E  E  E  E  E       E  E  E  E  Q    Q      
--------------------------||--------------------------|
--------------------------||*-------------------9\----|
--5--5--5--4--------------||*-------------------------|
--------------5--5--4--3--||---2-----2--5--7----------|


  E  E  E  E  E  E  E  E   4x  E  E  E  E  E  E  Q     
---------------------------||-------------------------|
--L-----------------------*||--L----------------------|
-----5--5--4--------------*||-----5--5--4-------------|
--------------5--5--4--3---||--------------5-----5----|


    E  E  E  E  Q    Q        E  E  E  E  E  E  E  E   4x
|--------------------------|---------------------------||
|*-------------------9\----|--L-----------------------*||
|*-------------------------|-----5--5--4--------------*||
|---2-----2--5--7----------|--------------5--5--4--3---||


  E  E  E  E  E  E  Q       Q    E  E  Q    E  E   
-------------------------|-------2----------4-----|
--L----------------------|--4-------4--3-------3--|
-----5--5--4-------------|------------------------|
--------------5-----5----|------------------------|


  Q    E  E  Q    E  E     Q    E  E  Q    E  E   
-------6----------6-----|-------2----------4-----|
------------------------|--4-------4--3-------3--|
--7-------7--4-------4--|------------------------|
------------------------|------------------------|


  Q    E  E  E  E  E  E     E  E  E  E  E  E  E  E   
-------6-----------------|--------------------------|
-------------------------|--------7-----------------|
--7-------7--------------|--5--5-----5--------7-----|
-------------7--7--7--7--|--------------5--5-----5--|


  E  E  E  E  E  E  E  E     E  E  E  E  E  E  E  E   
--------------------------|--------------------------|
--------------------7-----|--------------------------|
--------2-----5--5-----5--|--------7-----------2-----|
--0--0-----0--------------|--5--5-----5--0--0-----0--|


  E  E  E  E  E  E  E  E     E  E  E  E  E  E  E  E   
--------------------------|--------------------------|
--------7-----------------|--------------------7-----|
--5--5-----5--------7-----|--------2-----5--5-----5--|
--------------5--5-----5--|--0--0-----0--------------|


  E  E  E  E  E  E  E  E     E  E  E  E     W                 
--------------------------|--------------|-------------------|
--------------------------|--------------|-------------------|
--------7-----------------|--------------|--2----------------|
--5--5-----5--0--0--0--0--|--0--0--0--0--|-------------------|


  W                   W                   W                 
-------------------|-------------------|-------------------|
-------------------|-------------------|-------------------|
--4----------------|-------------------|--2----------------|
-------------------|--2----------------|-------------------|


  W                   W                   W                 
-------------------|-------------------|-------------------|
-------------------|-------------------|-------------------|
--2----------------|--4----------------|-------------------|
-------------------|-------------------|--2----------------|


  E  E  E  E  E  E  E  E     E  E  E  E  E  E  E  E   
--------------------------|--------------------------|
--------------------------|--------7-----------------|
--------------------------|--5--5-----5--------7-----|
--7--7--7--7--7--7--7--7--|--------------5--5-----5--|


  E  E  E  E  E  E  E  E     E  E  E  E  E  E  E  E   
--------------------------|--------------------------|
--------9-----------7-----|--------------------9-----|
--7--7-----7--5--5-----5--|--------7-----7--7-----7--|
--------------------------|--5--5-----5--------------|


  E  E  E  E  E  E  E  E     E  E  E  E  E  E  E  E   
--------------------------|--------------------------|
--------7-----------------|--------9-----------7-----|
--5--5-----5--------7-----|--7--7-----7--5--5-----5--|
--------------5--5-----5--|--------------------------|


  E  E  E  E  E  E  E  E     E  E  E  E       E  E  E  E  E  E  E  E   
--------------------------|--------------||---------------------------|
--------------------9-----|--------9-----||*--------7-----------------|
--------7-----7--7-----7--|--7--7-----7--||*--5--5-----5--------7-----|
--5--5-----5--------------|--------------||---------------5--5-----5--|


  E  E  E  E  E  E  E  E     E  E  E  E  E  E  E  E   
--------------------------|--------------------------|
--------------------7-----|--------------------------|
--------2-----5--5-----5--|--------7-----------2-----|
--0--0-----0--------------|--5--5-----5--0--0-----0--|


  E  E  E  E  E  E  E  E     E  E  E  E  E  E  E  E   
--------------------------|--------------------------|
--------7-----------------|--------------------7-----|
--5--5-----5--------7-----|--------2-----5--5-----5--|
--------------5--5-----5--|--0--0-----0--------------|


  E  E  E  E  E  E  E  E     E  E  E  E       E  E  E  E  H         
--------------------------|---------------||-----------------------|
--------------------------|--------------*||-----------------------|
--------7-----------------|--------------*||--------7--------------|
--5--5-----5--0--0--0--0--|--0--0--0--0---||--5--5-----0--L--------|


  W                  
-------------------||
-------------------||
-------------------||
--L----------------||




Duration Legend
---------------
W - whole
H - half
Q - quarter
E - 8th
S - 16th
T - 32nd
X - 64th
. - note dotted
|-n-|  - n-tuplets


Tablature Legend
----------------
L - tied note
x - dead note
g - grace note
(n) - ghost note
> - accentuded note
NH - natural harmonic
AH - artificial harmonic
TH - tapped harmonic
SH - semi harmonic
PH - pitch harmonic
h - hammer on
p - pull off
b - bend
br - bendRelease
pb - preBend
pbr - preBendRelease
brb - bendReleaseBend
\n/ - tremolo bar dip
\n - tremolo bar dive
-/n - tremolo bar Release up
/n\ - tremolo bar inverted dip
/n - tremolo bar return
-\n - tremolo bar Release down
S - shift slide
s - legato slide
/ -  slide into from below or out of upwards
\ -  slide into from above or out of downwards
~ - vibrato
W - wide vibrato
tr - trill
TP - tremolo picking
T - tapping
S - slap
P - pop
< - fade in
^ - brush up
v - brush down
Suggest correction
What's this?
You can suggest a correction to this tab. Community and Mods will review your correction and vote to approve or reject it.
comments
We did not receive enough feedback on this tab! Please rate:
print report bad tab
1 2 3 4 5
guest
You may want to rate the tab now too:
select rating
Please do not post tabs as comments. Select "correction" instead!