Oops, an error
Loading. Please wait.

Crooked Teeth Bass Tab

version 3
version 3

Whole song

Interactive

25,165 views 21 this week
1 commentread comment
1 2 3 4 5
accurate
x 16
add to favorites
launch autoscroll
font size
0
reset
guitar tuner
Tab Pro tools
  • play this tab
  • loop segment
  • change instrument
  • show fretboard
  • metronome
×
Best way to learn
"Crooked Teeth"
Autoscroll
slow
fast
+/-
esc
set tempo
stop
This has a few of my own embellishments, but it works... Be very free with it!

Verse
G ------4----------|
D ---------0-------|
A ---02------400---|
E 2-2-----------43-|

Bridge
G --2---4---6---6---2---4---6------|
D 4--43--3--------4--43--3---------|
A --------7--74--4--------7--72222-|
E ---------------------------------|

Chorus           last time...
G --2-----(----)(--------)
D 00-0--2-(----)(--------)
A ----00-0(--2-)(--------)
E --------(00-0)(0000000-)

Bass Solo
G --24--------------24-------------|
D 44----4300-------4----4300-------|
A ----22----4200------22----4200---|
E --------------432-------------43-|

Then back to the verse...

Bridge
G --2---4---6---6---2---4----------|
D 4--43--3--------4--43--3---------|
A --------7--74--4--------22222202-|
E ---------------------------------|

Chorus           last time...
G --------(----)(--------)
D 000-----(----)(--------)
A ---4000-(---2)(--------)
E -------2(000-)(0000000-)

Middle Eight (1)
G --------------------------------|
D ----------------------4---------|
A 2-----2-4-----4---------2-----0-|
E ----------------2---------------|

Middle Eight (2)
G ---------------------------------|
D ----------------7777666644442222-|
A 2-----2-4-----4------------------|
E ---------------------------------|

Chorus (x3)
G -------------|
D 000----------|
A ---4000----2-|
E -------2000--|

Chorus (x1)
G -----------------|
D 000------22------|
A ---4000-----2420-|
E -------20--0-----|

Chorus (x3)
G -------------|
D 000----------|
A ---4000----2-|
E -------2000--|

Chorus (x1)
G ---------|
D 000------|
A ---4000--|
E -------0-|

Note that on that last chorus you drop to the E instead of the F#, a quarter-beat 
than expected... And then just leave it hanging. For the main verse bit you play
the D follow the exact rhythm I've shown and it gives it a nice synchopated feel.
Any questions, feel free to e-mail me:

rudd_e@hotmail.com

Hope this helps!
comments
print report bad tab
1 comment total.
0 reply
CRITEREON wrote on September 8 2009, 07:23 pm

It shattered my understanding of what the bass plays ha. Good tab.

I want to post or [tab]
guest
You may want to rate the tab now too:
select rating
Please do not post tabs as comments. Select "correction" instead!