Oops, an error
Loading. Please wait.

Crooked Teeth Bass Tab

version 4
version 4

Whole song

Interactive

9,805 views 9 this week
1 commentread comment
1 2 3 4 5
x 5
add to favorites
launch autoscroll
font size
0
reset
guitar tuner
Autoscroll
slow
fast
+/-
esc
set tempo
stop
Help us to improve Ultimate-Guitar.com Take our survey!
×
Difficulty
intermediate
Artist - Death Cab For Cutie
Track - Crooked Teeth
Album - Plans


This tab is pretty easy, and I AM 100% POSITIVE THIS IS CORRECT. if you have any 
comments, or complains, email me at saucy1293@aol.com. Have fun!

The bass doesnt come in until a little bit into the first verse. after ben says, "...and 
to fall, to fall" and pauses, thats when the bass comes in.

\ - slide


VERSE

G-----4------------------------------------|
D-4-7--------------------------------------|  x 4
A-----2-2\0--5-5-4-------------------------|
E------------------5-5-4-3-----------------|

PRE-CHORUS

G---2-----2-----2---------|
D-4---4-3---3-2---2-------|
A-------------------4-4-4-|
E-------------------------|

G---2-----2-----2-----------|
D-4---4-3---3-2---2---------|
A-------------------2-2-2-2-|
E---------------------------|


CHORUS

G-----7-----------------9---------|
D--------------7-----------   x 3-|
A-5-5---5----------7-7----7-------|
E---------5-5----5----------------|

G-----7--------------------------|
D--------------7-----------------|
A-5-5---5----------7-7-7-7-7-7-7-|
E---------5-5----5---------------|


BASS INTERLUDE

G-------4-------------------------------|
D-4-4-7-------4-3----------------   x 1-|
A---------2-2-----5-5-5-4---------------|
E-------------------------5-5-4-3-------|


BRIDGE

G-----------------------|
D-----------------------|
A-2----4---------2  x 2-|
E-----------2-----------|


ORDER

verse
chorus
bass interlude
verse
chorus
bridge
chorus (guitar solo)
chorus


thats it! for the guitar solo, just play the chorus with out the octaves.

Please rate!
Suggest correction
comments
print report bad tab
1 comment total.
0 reply
Johnnyjoe 10 Jun 03, 2007 12:39 AM

nice tab man

guest
You may want to rate the tab now too:
select rating
Wanna post a correction for this tab? Suggest correction